Song name
# A B C D E F G H I J K L M N O P Q R S T U V W X Y Z

Dark Moor - The Kings Sword tab

          SWEEP               SWEEP
E-----[-------15-]14-12-14--[---------15-]-14-12-10----|
B-----[----------]----------[------------]-------------|
G-----[----------]----------[------------]-------------|
D-----[-16-------]----------[-16---------]-------------|
A-----[--15-16---]----------[---15-16----]-------------|
E-----[----------]----------[------------]-------------|

E--------------------------------------------------------------------|
B------------------------------------------------19------------------|
G-18-19-18-16-14-14-16-14-12-----16--18--19--21-------21---19--18----|
D------------------------------16--16--16--16--16--16----16--16--16--|
A--------------------------------------------------------------------|
E--------------------------------------------------------------------|

E----------------------------------------------|
B----------------------------------------------|
G--14>16-14------------------------------------|
D-----------16---(BENDDOWN)14(BENDUP)-12-9-7>9-|
A----------------------------------------------|
E----------------------------------------------|
Tap to rate this tab
# A B C D E F G H I J K L M N O P Q R S T U V W X Y Z