Song name
# A B C D E F G H I J K L M N O P Q R S T U V W X Y Z

Dark New Day - Storm tab

Tuning: standard

i took the other tab for this song and just took the notes to standard tuning. not 
but you don't have to tune different :)
(email problems to one15metallica@hotmail.com)
verse(repeat as necessary):

e|-----------------------------------------------------------------------------|
B|------1-------1---------1------1-------1-------------------------------------|
G|--------3---3---3-----3------3---3-------3-----------------------------------|
D|----0--------------------------------3---------------------------------------|
A|----------1-------1h3--------------------------------------------------------|
E|--3------------------------1-------0-----------------------------------------|

Chorus (find out strumming pattern) :

e|---------------------------------------------------------------------------|
B|---------------------------------------------------------------------------|
G|---3--------3-------8------------------------------------------------------|
D|---5--------3------10-------3--3-------------------------------------------|
A|---5--------5------10-------3--3-------------------------------------------|
E|---3--------6-------8-------1--0-------------------------------------------|


| /  slide up
| \  slide down
| h  hammer-on
| p  pull-off
| ~  vibrato
| +  harmonic
| x  Mute note
===============================================================================
Tap to rate this tab
 
# A B C D E F G H I J K L M N O P Q R S T U V W X Y Z