Song name
# A B C D E F G H I J K L M N O P Q R S T U V W X Y Z

Dark New Day - Breakdown Acoustic tab

e---------------------------------------------------------------|(Play 7 times)
b---------3-----------3-----3h4p3-1-3----3---3---3---3h4p3-1-3--|
g-----0----0------0-----0--------------0---0---0--0-------------|
d-4/5---5----5---3--3-----3-----------1---0---------------------|
a--------------------------------------------3------------------|
e---------------------------------------------------------------|

Prechorus
e------------------|
b-3--3----3--3--3--|
g-0--0---0--0---0--|
d-5--3--1--0----0--|
a---------------3--|
e------------------|
Tap to rate this tab
 
# A B C D E F G H I J K L M N O P Q R S T U V W X Y Z