Song name
# A B C D E F G H I J K L M N O P Q R S T U V W X Y Z

Dark New Day - Follow The Sun Down tab

Artist: Dark New Day
Title: Follow the Sun down
Tuning: C G C F A D low to high
Tabbed: romellbrown (mellbrown@email.com)

Legend:
p=pull off
h=hammer down
/=let ring
pm= palm mute
s=slide
x=mute stroke

(This is mainly my interpretation of the titled song based on the melody and one guitar).

INTRO and VERSE done six times
D|------------------------------------------------------------|
A|------------------------------------------------------------|
F|-------5----------------------5---7p5--5-----5---7--5-------|
C|---7p5---7p5--2-4s5--5p4p0-0----5----5---------5------------|
G|------------------------------------------------------------|
C|-0----------------------------------------------------------|

CHORUS
D|--------------------------|     D|-----------------------|                             
A|--------------------------|     A|-----------------------|                             
F|--------------------------|     F|-----------------------|                         
C|-12-12-12-12--888--3-5--0-| x3  C|-12-12-12-12--8-8------|                             
G|-10-10-10-10--888--3-5--0-|     G|-10-10-10-10--8-8------|                               
C|-10-10-10-10--888--3-5--0-|     C|-10-10-10-10--8-8------|     
                         
VERSE done six times
D|------------------------------------------------------------|
A|------------------------------------------------------------|
F|-------5----------------------5---7p5--5-----5---7--5-------|
C|---7p5---7p5--2-4s5--5p4p0-0----5----5---------5------------|
G|------------------------------------------------------------|
C|-0----------------------------------------------------------|

CHORUS
D|--------------------------|     D|-----------------------|                             
A|--------------------------|     A|-----------------------|                             
F|--------------------------|     F|-----------------------|                         
C|-12-12-12-12--888--3-5--0-| x3  C|-12-12-12-12--8-8------|                             
G|-10-10-10-10--888--3-5--0-|     G|-10-10-10-10--8-8------|                               
C|-10-10-10-10--888--3-5--0-|     C|-10-10-10-10--8-8------|     

BRIDGE
D|-------------------------|    
A|-------------------------|     
F|-------------------------|     
C|-3-5-10-8-7-5-3-5-0------| x3  
G|-3-5-10-8-7-5-3-5-0------|    
C|-3-5-10-8-7-5-3-5-0------|     

D|--------------------------------------|     
A|--------------------------------------|  
F|--------------------------------------|    
C|-3-5-10-8-7-5-3-5-7777777s10-10-10----|   
G|-3-5-10-8-7-5-3-5-5555555s8--8--8-----|     
C|-3-5-10-8-7-5-3-5-5555555s8--8--8-----|     

D|--------------------------------------------------------|
A|--------------------------------------------------------|
F|-------5------------------------------------------------|
C|---7p5---7p5--2-4s5--5p4p0--33333333s55555555-----------|
G|----------------------------33333333s55555555-----------|
C|-0--------------------------33333333s55555555-----------|

CHORUS
D|--------------------------|     D|-----------------------|                             
A|--------------------------|     A|-----------------------|                             
F|--------------------------|     F|-----------------------|                         
C|-12-12-12-12--888--3-5--0-| x3  C|-12-12-12-12--8-8------|                             
G|-10-10-10-10--888--3-5--0-|     G|-10-10-10-10--8-8------|                               
C|-10-10-10-10--888--3-5--0-|     C|-10-10-10-10--8-8------|

D|------------------------------------------------------------|
A|------------------------------------------------------------|
F|-------5----------------------5---7p5--5-----5---7--5-------|
C|---7p5---7p5--2-4s5--5p4p0-0----5----5---------5------------|
G|------------------------------------------------------------|
C|-0----------------------------------------------------------|

D|-------------------------------------|
A|-------------------------------------|
F|-------5-----------------------------|
C|---7p5---7p5--2-4s5--5p4p0-0--3------|
G|------------------------------3------|
C|-0----------------------------3------|

please note i did not create this tab. All credit goes to its writer and to Dark New Day
Tap to rate this tab
# A B C D E F G H I J K L M N O P Q R S T U V W X Y Z