Song name
# A B C D E F G H I J K L M N O P Q R S T U V W X Y Z

Dark New Day - Breakdown Acoustic tab

verse
e----0----0--------------0---0--0--0-------------| (Play 7 times)
b---3-3--3-3-3h4p3-1-3-3---3--0--0-3h4p3-1-3-----|
g--0----0--------------1---0---------------------|
d-5----3----------------------3--3---------------|
a------------------------------------------------|
e------------------------------------------------|
Prechorus
e-0--0-----0--0-0--|
b-3--3----3--3--3--|
g-0--0---1--0---0--|
d-5--3----------3--|
a------------------|
e------------------|
Chorus
e-3-1-0-0-|
b-3-1-3-3-|
g-0-2-2-0-|
d-0-3-0-2-|
a-2-3-0-3-|
e-3-1-----|
Tap to rate this tab
 
# A B C D E F G H I J K L M N O P Q R S T U V W X Y Z