Song name
# A B C D E F G H I J K L M N O P Q R S T U V W X Y Z

Dark Tooth Encounter - Alloy Pop tab

these are the basic elements of the song

these two chords are played very loosely:
e|--------|
B|--2--3--|
G|--2--2--|
D|--0--0--|
A|--------|
E|--------|

the lick alternates between
e|-----------------------|
B|-----6--6--6-----5--5--|
G|--5-----------5--------|
D|-----------------------|
A|-----------------------|
E|-----------------------|

and 
e|-----------------------|
B|-----5--5--5-----5--5--|
G|--5-----------5--------|
D|-----------------------|
A|-----------------------|
E|-----------------------|

first break
e|--------------------------------------------------------------------| 
B|--------------------------------------------------------------------|
G|----10---10---10-----5-7-5-7-5-7-5-----7---7---7--------------------|
D|--7----7----7----7-------------------4---4---4---4-----7---7---7----|
A|----------------------------------------------------/5---5---5---5--|
E|--------------------------------------------------------------------|

second break
e|--------------------------------------------------------------------| 
B|--------------------------------------------------------------------|
G|----10---10---10-----5-7-5-7-5-7-7-----7---7---7--------------------|
D|--7----7----7----7-------------------4---4---4---4-----7---7---7----|
A|----------------------------------------------------/5---5---5---5--|
E|--------------------------------------------------------------------|

leave a comment with corrections and additions. thanks
Tap to rate this tab
# A B C D E F G H I J K L M N O P Q R S T U V W X Y Z