Song name
# A B C D E F G H I J K L M N O P Q R S T U V W X Y Z

Dark Tranquillity - Scyth Rage And Roses tab

                  Band Name: Dark Tranquillity
                  CD-title: The Minds I
                  Song: Scyth, Rage and Roses

Intro:

--------------|--------------|--------------|--------------|
--------------|--------------|--------------|--------------|
--3h-5-7------|--5-7-8---8-8-|--5-7-8-8-----|--------------|
--------------|--------------|--------------|--------------|
--------------|--------------|--------------|--------------|
--------------|--------------|--------------|--------------|
Repeat this 4 times.

--------------|--------------|--------------|--------------|
--------------|------7-7-9-9h|10-9-7-10-10-9|-10-10-9-7-(4x)
--5-7-5-7-8-8-|--------------|--------------|--------------|
--------------|--------------|--------------|--------------|
--------------|--------------|--------------|--------------|
--------------|--------------|--------------|--------------|

--------------|--------------|--------------|--------------|
--------------|--------------|--------------|--------------|
--7-7-9-9h10--|-9h10---------|--7-7-9-9h10--|-9h12---------|
--------------|--------------|--------------|--------------|
--------------|--------------|--------------|--------------|
--------------|--------------|--------------|--------------|


For more questions email: razor@euronet.nl
Tap to rate this tab
 
# A B C D E F G H I J K L M N O P Q R S T U V W X Y Z