Guitaretab - guitar tabs
Song name
# A B C D E F G H I J K L M N O P Q R S T U V W X Y Z

Dark Tranquillity - The Treason Wall tab

Song: The Treason Wall
Artist: Dark Tranquility
Album: Damage Done (2002)



Tabbed by Kevin Frank (kevin_j_frank@hotmail.com)

String tunings:
Db
Ab
E
B
G
Db


||-----------------------------------------------------|
||-----------------------------------------------------|
||-----------------------------------------------------|
||-----------------------------------------------------|
||--------10--------9----10----7-----------------------|
||-----------------------------------------------------|

[ Tab from: http://www.guitaretab.com/d/dark-tranquillity/76060.html ]
|-----------------------------------------------------------------|
|-----------------------------------------------------------------|
|-----------------------------------------------------------------|
|---------------------------7---------------7---------------------|
|--------7----9----10--------------10---------9-------------------|
|-----------------------------------------------------------------|


|----------------------------------------------------------|
|----------------------------------------------------------|
|----------------------------------------------------------|
|--------10------10------9----7----9-----------------------|
|----------------------------------------------------------|
|----------------------------------------------------------|


|---------------------------------------------------------------------||  Play--| 2x
|-------------------------------------------------------------------------------|
|-------------------------------------------------------------------------------|
|--------7-------------------9--------------------------------------------------|
|--------------10----9-------------9----10--9--7--------------------------------|
|-------------------------------------------------------------------------------|
Related for The Treason Wall tab