Guitaretab - guitar tabs
Song name
# A B C D E F G H I J K L M N O P Q R S T U V W X Y Z

Dark Winter - Defiltered tab

------------------------------------------------------------
	           Defiltered- Dark Winter
------------------------------------------------------------

By: Doo Scott

I use a seven string guitar in this song, so if you only have a six, plays it on the six.
Also, drop the top string down a step. If youíre using a six string itís played in drop D
Iíll be bringing lyrics to the tabs shortly.


Intro
e|---------------------------------------------------------
B|---------------------------------------------------------
G|---------8-7--5555555533333333---------------------------
D|-5/7ó7h8-------------------------------------------------
A|---------------------------------------------------------
E|---------------------------------------------------------
B|---------------------------------------------------------

Chorus
e|---------------------------------------
B|---------------------------------------
G|---------------------------------------
D|---------------------------------------
A|-9-99-9---3-33-33-5-55-5---7-77-77-----
E|-9-99-9---3-33-33-5-55-5---7-77-77-----
B|-9-99-9---3-33-33-5-55-5---7-77-77-----
[ Tab from: http://www.guitaretab.com/d/dark-winter/29304.html ]
Verse
e|---------------------------------------
B|---------------------------------------
G|---------------------------------------
D|---------------------------------------
A|---------------------------------------
E|---9---9---7---7---5---5---3-----------
B|-7---7---5---5---3---3---1------------- x2

e|---------------------------------------
B|---------------------------------------
G|---------------------------------------
D|---------------------------------------
A|---------------------------------------
E|---2---2---4---4---5---5---7---7-------
B|-0---0---2---2---3---3---5---5--------- x2

Interlude 
e|---------------------------------------
B|---------------------------------------
G|---------------------------------------
D|-5-55-5---3-33-33----------------------
A|-5-55-5---3-33-33----------------------
E|-3-33-3---1-11-11----------------------
B|--------------------------------------- x2

e|---------------------------------------
B|---------------------------------------
G|---------------------------------------
D|---------------------------------------
A|---------------------------------------
E|-0-------------------------------------
B|---------------------------------------

e|---------------------------------------
B|---------------------------------------
G|---------------------------------------
D|-2-------------------------------------
A|-2-------------------------------------
E|-0-------------------------------------
B|---------------------------------------
Related for Defiltered tab