Song name
# A B C D E F G H I J K L M N O P Q R S T U V W X Y Z

Dark Winter - Delivered tab

------------------------------------------------------------                  Delivered- Dark Winter
------------------------------------------------------------

By: Doo Scott

Intro x2
e|-------------------------------------------------------
B|-------------------------------------------------------
G|-------------------------------------------------------
D|-------------------------------------------------------
A|-------------------------------------------------------
E|---------55555555--------33333333----------------------
B|-00000000--------00000000------------------------------

Riff 1/verse x4
e|-------------------------------------------------------
B|-------------------------------------------------------
G|-------------------------------------------------------
D|-------------------------------------------------------
A|-5/7-5/7-5/7-5/7-3-------------------------------------
E|-5/7-5/7-5/7-5/7-3-------------------------------------
B|-5/7-5/7-5/7-5/7-3-------------------------------------

Chorus x2
e|-------------------------------------------------------
B|-------------------------------------------------------
G|-------------------------------------------------------
D|-------------------------------------------------------
A|-555-5-55-999-9-99-333-3-33-7898768--------------------
E|-555-5-55-999-9-99-333-3-33-7898768--------------------
B|-555-5-55-999-9-99-333-3-33-7898768--------------------

Verse x8
Chorus x2
Verse x8
Chorus x2
Interlude (separate tab see Inter. Delivered)
Chorus x6
Intro x1
Tap to rate this tab
# A B C D E F G H I J K L M N O P Q R S T U V W X Y Z