Song name
# A B C D E F G H I J K L M N O P Q R S T U V W X Y Z

Darkbuster - Rise Up tab

Darkbuster
A Weakness for Spirits
Rise Up

Intro/Verse:
---------------------|
---------------------|
---------------------|
---2-2-5-5-7-7-8-8---|
---2-2-5-5-7-7-8-8---| x6
---0-0-3-3-5-5-6-6---|

Chorus:
-----------------------|
-----------------------|
-----------------------|
---8-8-8-8-8-8-8-7-5---|
---8-8-8-8-8-8-8-7-5---| x4
---6-6-6-6-6-6-6-5-3---|
Tap to rate this tab
 
# A B C D E F G H I J K L M N O P Q R S T U V W X Y Z