Song name
# A B C D E F G H I J K L M N O P Q R S T U V W X Y Z

Darkbuster - Pub tab

Darkbuster
22 Songs that You Will Never Wanna Hear Again
Pub

Intro/Verse:
----------------|
----------------|
-----69-67-9----|
---7-69-67-97---|
---7-47-45-77---| x5
---5--------5---|

Chorus:
----------------------------|
----------------------------|
--------9----7--------------|
---7----9----7----7-7-7-7---|
---7----7----5----7-7-7-7---| x2
---5--------------5-5-5-5---|
Tap to rate this tab
 
# A B C D E F G H I J K L M N O P Q R S T U V W X Y Z