Song name
# A B C D E F G H I J K L M N O P Q R S T U V W X Y Z

Darkbuster - Armageddon Time tab

Darkbuster
A Weakness for Spirits
Armageddon Time

Intro:
-----------|
-----------|
---7-6-4---|
---7-6-4---|
---5-4-2---|
-----------|

Verse:
-------------------------------------|
-------------------------------------|
---4-4-4-4-4-4-4-4-2-2-2-2-2-2-2-2---|
---4-4-4-4-4-4-4-4-2-2-2-2-2-2-2-2---|
---2-2-2-2-2-2-2-2-0-0-0-0-0-0-0-0---| x2
-------------------------------------|

Chorus:
-------------------------------------|
-------------------------------------|
---7-7-7-7---------4-4-4-4-----------|
---7-7-7-7-7-7-7-7-4-4-4-4-5-5-5-5---|
---5-5-5-5-7-7-7-7-2-2-2-2-5-5-5-5---| x2
-----------5-5-5-5---------3-3-3-3---|
Tap to rate this tab
# A B C D E F G H I J K L M N O P Q R S T U V W X Y Z