Song name
# A B C D E F G H I J K L M N O P Q R S T U V W X Y Z

Darkbuster - Irish tab

Darkbuster
22 Songs that You Will Never Wanna Hear Again
Irish

Intro:
-----------------------------|
-----------------------------|
-----------------------------|
-----------------------------|
-----5-5---2-2---5-5---2-2---| x6
---3-----3-----3-----3-------|

Verse:
---------------------------------------|
---------------------------------------|
---------------------------------------|
---0-4-5-7-7-7-5-4-0-0-0---------------|
---------------------------------------|
---------------------------------------|

---------------------------------------|
---------------------------------------|
---------------4-2-0-0-0---------------|
---0-4-5-7-7-7-------------------------|
---------------------------------------|
---------------------------------------|

---------------------------------------|
---------------------------------------|
---------------------------------------|
---0-4-5-7-7-7-5-4-0-0-0---------------|
---------------------------------------|
---------------------------------------|

---------------------------------------|
---------------------------------------|
---------------------------------------|
---4-2---------------------------------|
------2-2-2-2-2-2-3-4-5----------------|
---------------------------------------|

Verse #2:
A D
A D
A D
G D
A D
Tap to rate this tab
# A B C D E F G H I J K L M N O P Q R S T U V W X Y Z