Song name
# A B C D E F G H I J K L M N O P Q R S T U V W X Y Z

Darkbuster - Hometown Zero tab

Darkbuster
22 Songs That You Will Never Wanna Hear Again
Hometown Zero

Verse:
-------------------|
-------------------|
---5-------3-------|
---5---5---3---3---|
---3---5---1---3---| x2
-------3-------1---|

Chorus:
-----------------------------------|
-----------------------------------|
---5-------------3-3-4-4-5---------|
---5-x-x-5-5-5-5-3-3-4-4-5-x-x-x---|
---3-x-x-5-5-5-5-1-1-2-2-3-x-x-x---| x8
-----x-x-3-3-3-3-----------x-x-x---|
Tap to rate this tab
# A B C D E F G H I J K L M N O P Q R S T U V W X Y Z