Song name
# A B C D E F G H I J K L M N O P Q R S T U V W X Y Z

Darkbuster - Grandma Was A Nazi tab

Help us improve GuitareTab! Take a short survey!
Darkbuster
A Weakness for Spirits
Grandma Was a Nazi

Intro:
-------------|
-------------|
-------------|
---7-7-7-7---|
---7-7-7-7---|
---5-5-5-5---|

Verse:
-----------------------------------------|
-----------------------------------------|
-----------9-9-9-9-11-11-11-11-7-7-7-7---|
---7-7-7-7-9-9-9-9-11-11-11-11-7-7-7-7---|
---7-7-7-7-7-7-7-7-9--9--9--9--5-5-5-5---| x2
---5-5-5-5-------------------------------|

Chorus:
-------------------------------------|
-------------------------------------|
-------------------7-7-7-7-7-7-7-7---|
---7-7-7-7-2-2-2-2-7-7-7-7-7-7-7-7---|
---7-7-7-7-2-2-2-2-5-5-5-5-5-5-5-5---| x2
---5-5-5-5-0-0-0-0-------------------|

Outro:
-------------|
-------------|
-------------|
---7-7-7-7---|
---7-7-7-7---|
---5-5-5-5---|
Related for Grandma Was A Nazi tab