Song name
# A B C D E F G H I J K L M N O P Q R S T U V W X Y Z

Darkbuster - Whiskey Will tab

Help us improve GuitareTab! Take a short survey!
Darkbuster
A Weakness for Spirits
Whiskey Will

Intro:
-------------------|
-------------------|
---5-------2-------|
---5---5---2---3---|
---3---5---0---3---|
-------3-------1---|

Verse:
-------------------------------------|
-------------------------------------|
---5-5-5-5---------2-2-2-2-----------|
---5-5-5-5-5-5-5-5-2-2-2-2-3-3-3-3---|
---3-3-3-3-5-5-5-5-0-0-0-0-3-3-3-3---| x2
-----------3-3-3-3---------1-1-1-1---|

Chorus:
---------------------|
---------------------|
---5-5-----2-2-------|
---5-5-5-5-2-2-3-3---|
---3-3-5-5-0-0-3-3---| x3
-------3-3-----1-1---|

-------------|
-------------|
---5---2-----|
---5-5-2-3---|
---3-5-0-3---| x1
-----3---1---|

Solo:
--------------------------------------------------|
------------------10-8-8b----10-8-----------------|
-----------8-10-------------------10----10-8------|
---10---10-----------------------------------10---|
--------------------------------------------------| x2
--------------------------------------------------|
Related for Whiskey Will tab