Song name
# A B C D E F G H I J K L M N O P Q R S T U V W X Y Z

Darkbuster - Amazing Royal Shaft tab

Darkbuster
22 Songs that You will never wanna hear again
Amazing Royal Shaft

Intro:
-------------------------------------|
-------------------------------------|
-----------9-9-9-9-7-7-7-7-9-9-9-9---|
---7-7-7-7-9-9-9-9-7-7-7-7-9-9-9-9---|
---7-7-7-7-7-7-7-7-5-5-5-5-7-7-7-7---|
---5-5-5-5---------------------------|
  pm............................pm

Verse:
-------------------------------------|
-------------------------------------|
-----------9-9-9-9-7-7-7-7-9-9-9-9---|
---7-7-7-7-9-9-9-9-7-7-7-7-9-9-9-9---|
---7-7-7-7-7-7-7-7-5-5-5-5-7-7-7-7---|  x3
---5-5-5-5---------------------------|

Chorus:
-------------------------------------|
-------------------------------------|
---6-6-6-6-7-7-7-7---------9-9-9-9---|
---6-6-6-6-7-7-7-7-7-7-7-7-9-9-9-9---|
---4-4-4-4-5-5-5-5-7-7-7-7-7-7-7-7---|  x2 (last palm muted)
-------------------5-5-5-5-----------|
Tap to rate this tab
 
# A B C D E F G H I J K L M N O P Q R S T U V W X Y Z