Song name
# A B C D E F G H I J K L M N O P Q R S T U V W X Y Z

Darker My Love - Tentai Kansoku tab

"Tentai Kansoku"

From the Anime Darker Than Black                                    


E||--------------------|--6-----------------|
B||---------------4----|---------------4----|
G||--------------------|--------------------|
D||--------------------|--4-----------------|
A||--------------------|--------------------|
E||--------------------|--------------------|


                                     
             
--4-----------------|--8----9----11----8----|
---------------4----|-----------------------|
--------------------|-----------------------|
--3-----------------|--6--------------------|
--------------------|-----------------------|
--------------------|-----------------------|

               
               
--6----------------|--2----------------|
-------------------|--0----------------|
-------------------|--3----------------|
--4----------------|--1----------------|
-------------------|-------------------|
-------------------|-------------------|

  
-------------------|---------------6----|
--4----------------|--4-----------------|
--4----------------|--3-----------------|
--4----------------|--3-----------------|
--6----------------|--6-----------------|
--4----------------|--3-----------------|

         
----------------------|-------------------|
--4------------(2)----|--4----------------|
--3-------------------|--4----------------|
--2-------------------|--4----------------|
--4-------------------|--2----------------|
--2-------------------|-------------------|


     |--3--|                                    
                      
--------------------------|-------------------||
--------------7-----------|-------------------||
-----------7--------------|-------------------||
--------6-----------------|-------------------||
-----7--------------------|-------------------||
--0-----------------------|-------------------||




Tap to rate this tab
# A B C D E F G H I J K L M N O P Q R S T U V W X Y Z