Song name
# A B C D E F G H I J K L M N O P Q R S T U V W X Y Z

Darkest Hour - Tunguska tab

----------------------------------------------------------------------------
			     Tunguska By Darkest Hour
                                   Deliver Us
                                      2007
                            John Henry & Devin Townsend
----------------------------------------------------------------------------


Tabbed by: Patrick H.
           May 5 2008
Email: Theycallmepaco@aol.com

Tuning: Dropped C   (CGCFAD)


 Intro  0:00-0:36
D|--------------------------------------------------------------------------|
A|--------------------------------------------------------------------------|
F|--------------------------------------------------------------------------|
C|-2~--2~--0--2~----2~--0-0-0-----------------------------------------------|
G|-2~--2~--0--2~----2~--0-0-0---7~--5~--7~--5~--9--10~--10--9--10--10~------|
C|-2~--2~--0--2~----2~--0-0-0-----------------------------------------------|

D|--------------------------------------------------------------------------|
A|--------------------------------------------------------------------------|
D|--------------------------------------------------------------------------|
C|-----------------------------------------------5p0--5p0--4p0--4p0---5p0---|
G|--7~--5~--7~--5~--3~--2~--2~--0~--2~--2~----------------------------------|
C|--------------------------------------------------------------------------|

D|--------------------------------------------------------------------------|
A|--------------------------------------------------------------------------|
F|---------------------------------------5-4-0------------------------------|
C|-5p0---4p0-4p0-----5~--5~--4~--5~------------7-5-4---5p0-5p0-4p0-4p0-5p0--|
G|--------------------------------------------------------------------------|
C|--------------------------------------------------------------------------|

D|--------------------------------------------------------------------------|
A|--------------------------------------------------------------------------|
F|--------------------------------------5*\---------------------------------|
C|--5p0---4p0-4p0-----5~--5~----4~-5~---------------------------------------|
G|--------------------------------------------------------------------------|
C|--------------------------------------------------------------------------|



 Verse One   0:37-1:08
D|--------------------------------------------------------------------------|
A|--------------------------------------------------------------------------|
F|--------------------------------------------------------------------------|
C|-----------------------------------------9--------------------------------|
G|--10-10-10-10--9-9-9-9--10-10-10-10---10----10---12p10p9--9---------------|
C|--------------------------------------------------------------------------|
                                        .     .
D|--------------------------------------------------------------------------|
A|--------------------------------------------------------------------------|
F|---------------------------------------------------------------Repeat-----|
C|-----------------------------------------9-------------------------2x-----|
G|--10-10-10-10--9-9-9-9--10-10-10-10---10----10---12p10p9--12--------------|
C|--------------------------------------------------------------------------|
                                        .     .

D|--------------------------------------------------------------------------|
A|--------------------------------------------------------------------------|
F|--------------------------------------------------------------------------|
C|-----------------------------------------------------------12-11-9-11-----|
G|--10-10-10-10--9-9-9-9--10-10-10-10-------------12-11-9-11----------------|
C|--------------------------------------------------------------------------|
                                                  .  .  . .
D|--------------------------------|-------------------|---------------------|
A|--------------------------------|-------------------|------Repeat---------|
F|------------------------Repeat--|-------------------|----------x2---------|
C|----------12-10--9h10---------x3|-------12-15--11h12|------12-10-9h10-----|
G|-----9-9------------------------|---9-9-------------|--9-9----------------|
C|--------------------------------|-------------------|---------------------|
       . .                            . .                . .


D|----------------------------------|
A|---------------Repeat-------------|
F|-------------------x2-------------|
C|--------12-15--11h12--------------|
G|----9-9---------------------------|
C|----------------------------------|


     Chorus One 1:09-1:26
D|--------------------------------------------------------------------------|
A|--------8~----9-8-----------------8~--------------------------------------|
F|------7-----------7------------7-----7~------------Repeat-----------------|
C|--7-9----------------b9~---7-9-----------7~---10~-------2x----------------|
G|--------------------------------------------------------------------------|
C|--------------------------------------------------------------------------|




     Verse Two   1:27-1:49
D|--------------------------------------------------------------------------|
A|--------------------------------------------------------------------------|
F|--------------------------------------------------------------------------|
C|-----------------------------------------9--------------------------------|
G|--10-10-10-10--9-9-9-9--10-10-10-10---10----10---12p10p9--9---------------|
C|--------------------------------------------------------------------------|
                                        .     .
D|--------------------------------------------------------------------------|
A|--------------------------------------------------------------------------|
F|--------------------------------------------------------------------------|
C|-----------------------------------------9--------------------------------|
G|--10-10-10-10--9-9-9-9--10-10-10-10---10----10---12p10p9--12--------------|
C|--------------------------------------------------------------------------|
                                        .     .

D|--------------------------------------------------------------------------|
A|--------------------------------------------------------------------------|
F|--------------------------------------------------------------------------|
C|-----------------------------------------------------------12-11-9-11-----|
G|--10-10-10-10--9-9-9-9--10-10-10-10-------------12-11-9-11----------------|
C|--------------------------------------------------------------------------|
                                                  .  .  . .

D|--------------------------------|-------------------|---------------------|
A|--------------------------------|-------------------|------Repeat---------|
F|------------------------Repeat--|-------------------|----------x2---------|
C|----------12-10--9h10---------x3|-------12-15--11h12|------12-10-9h10-----|
G|-----9-9------------------------|---9-9-------------|--9-9----------------|
C|--------------------------------|-------------------|---------------------|
       . .                            . .                . .


D|----------------------------------|
A|---------------Repeat-------------|
F|-------------------x2-------------|
C|--------12-15--11h12--------------|
G|----9-9---------------------------|
C|----------------------------------|




    Chorus Two 1:50-2:25
D|--------------------------------------------------------------------------|
A|--------8~----9-8-----------------8~--------------------------------------|
F|------7-----------7------------7-----7~------------Repeat-----------------|
C|--7-9----------------b9~---7-9-----------7~---10~-------4x----------------|
G|--------------------------------------------------------------------------|
C|--------------------------------------------------------------------------|


   Interlude One (Acoustic) 2:26-2:59
D|--------------------------------------------------------------------------|
A|--------8~----9-8-----------------8~--------------------------------------|
F|------7-----------7------------7-----7~------------Repeat-----------------|
C|--7-9----------------b9~---7-9-----------7~---10~-------4x----------------|
G|--------------------------------------------------------------------------|
C|--------------------------------------------------------------------------|



   Solo  (RHYTHM GUITAR) 3:00-3:34
D|--------------------------------------------------------------------------|
A|--------------------------------------------------------------------------|
F|-------------------------Repeat-------------------------------------------|
C|---2~-4-5~--7~--9~--10~----------4x---------------------------------------|
G|---2~-4-5~--7~--9~--10~---------------------------------------------------|
C|---2~-4-5~--7~--9~--10~---------------------------------------------------|


   Interlude Two (Acoustic)   3:34-3:52
D|--------------------------------------------------------------------------|
A|--------8~----9-8-----------------8~--------------------------------------|
F|------7-----------7------------7-----7~------------Repeat-----------------|
C|--7-9----------------b9~---7-9-----------7~---10~-------2x----------------|
G|--------------------------------------------------------------------------|
C|--------------------------------------------------------------------------|

         3:53-4:09
D|--------------------------------------------------------------------------|
A|--------8-8-8-8-8-8---9-8-------------------------8-8-8-8-8-8-------------|
F|------7-------------------7---------------------7-------------7-7-7-------|
C|--7-9------------------------9-9-9-9-9-9----7-9---------------------7-7-7-|
G|--------------------------------------------------------------------------|
C|--------------------------------------------------------------------------|
    . . . . . . . . .   . . .  . . . . . .    . . . . . . . . . . . . . . .

D|---------------------------------------------------------------------------|
A|--------------------8-8-8-8-8-8--9-8----------------------8-8-8-8-8-8------|
F|------------------7------------------7------------------7------------7-7-7-|
C|--10-10-------7-9----------------------9-9-9-9-9-9---7-9-------------------|
G|---------------------------------------------------------------------------|
C|---------------------------------------------------------------------------|
    .  .          . .  . . . . . .      . . . . . .      . .  . . . . . . .

D|--------------------------------------------------------------------------|
A|--------------------------------------------------------------------------|
F|--------------------------------------------------------------------------|
C|-7-7-7--10-10-------------------------------------------------------------|
G|--------------------------------------------------------------------------|
C|--------------------------------------------------------------------------|
   . . .  .


Haven't figured out the tabs for the part 4:10-5:01
Sorry....

   Outro    5:02-5:34
D|--------------------------------------------------------------------------|
A|--------------------------------------------------------------------------|
F|--------------------------------------------------------------------------|
C|---------------------------------------------5p0-5p0--4p0-4p0--5p0-5p0----|
G|------7~-5~-7~-5~--9~--10~--10~-9~-10~--10~-------------------------------|
C|--------------------------------------------------------------------------|


D|--------------------------------------------------------------------------|
A|--------------------------------------------------------------------------|
F|--------------------------------------------------------------------------|
C|--4p0-4p0---5~--5~--4-5~-5~-----5p0-5p0--4p0-4p0--5p0-5p0---4p0-4p0-------|
G|--------------------------------------------------------------------------|
C|--------------------------------------------------------------------------|

D|------------------|
A|------------------|
F|------------------|
C|----5~--5~---4-5~-|
G|------------------|
C|------------------|

/    slide up
 \    slide down
 h    hammer-on
 p    pull-off
 ~    vibrato
 +    harmonic
 x    Mute note
 P.M. Palm Mute
 *    Pinch Harmonic
 b    Bend
============================================================================
Lyrics:

          "Tunguska"


On the threshold of life as we know
in a chasm cascading to the core
where nothing seems real anymore
in between the obtuse and obscene

so let the rains come down and explore
the possibility that it all ended that day,
and like all you dark clouds you skeptics
denying your true nature took away

past the concrete and the steel
flowing down to the valley below drawn out for 99 years
splitting the seas this terrestrial being

so let the rains come down and explore
the possibility that it all ended that day,
and like all you dark clouds you skeptics
denying your true nature took away

so let the rains come down
and let the dark clouds gather around

dormant beneath us what was will be
dwelling within us what is will be no more
and maybe it's not all what we built it up to be
sustaining scientific prophecy
Tap to rate this tab
# A B C D E F G H I J K L M N O P Q R S T U V W X Y Z