Song name
# A B C D E F G H I J K L M N O P Q R S T U V W X Y Z

Darkest Hour - Hollow tab

Darkest Hour
So Sedated, So Secure
The Hollow (intro)
withinXsevenXbreaths
-
Tuning: Drop C (C,G,C,F,A,D)
-
* Palm mute
() Tremolo pick
~ Let ring
-

D|-------|-------------------------------------------|
A|-------|-------------------------------------------|
F|-------|-------------------------------------------|
C|-0~--2-|-------------------------------------------|
G|-0~--2-|-8--7---8-8--7---8-7---5--7--(11)(8)(7)----|
C|-0~--2-|--0---0----0---0-----0---------------------|
            *   *    *   *     *
--

D|----------------------------------------------|
A|----------------------------------------------|
F|----------------------------------------------|
C|----------------------------------------------|
G|-10---9--10-10----12-10---9--10--(13)(12)(10)-|
C|---0-----------0--------0---------------------|
     *           *        *
Tap to rate this tab
# A B C D E F G H I J K L M N O P Q R S T U V W X Y Z