Song name
# A B C D E F G H I J K L M N O P Q R S T U V W X Y Z

Darkest Hour - No God tab

This Is a great song one of my favorites on the Eternal Return and no one posted a 
tab yet for the intro so here it is:


C#|--------------------------------------------------
G#|--------------------------------------------------
E |--------------------------------------------------
B |----3-2-0-----------------------------------------
F#|----3-2-0-----5----8-7--4--5----------------------
B |----3-2-0--/7---7---------------------------------

   Guitar I
C#|--------------------------------------------------
G#|--------------------------------------------------
E |--------------------------------------------------
B |----3-2-0-----------------------------------------
F#|----3-2-0----0-/5-0--8b(1/2)---4b(1/2)------------
B |----3-2-0-----------------------------------------

   Guitar II
C#|--------------------------------------------------
G#|--------------------------------------------------
E |--------------------------------------------------
B |----3-2-0------------6b(1/2)---3b(1/2)------------
F#|----3-2-0----0-/5-0-------------------------------
B |----3-2-0-----------------------------------------
Tap to rate this tab
# A B C D E F G H I J K L M N O P Q R S T U V W X Y Z