Song name
# A B C D E F G H I J K L M N O P Q R S T U V W X Y Z

Darkest Hour - Fire In The Skies tab

----------------------------------------------------------------------------
			     Fire In The Skies - DARKEST HOUR
----------------------------------------------------------------------------

Tabbed by: brandon5pennies
Email:brandon.nickel@comcast.net

Tuning: Drop C
        CGCFAD

This is one of Darkest Hour's best solos. This is also one of their easier solos however 
you're not used to stuff like finger tapped arpeggios or sextuplet patterns it might 
Enjoy!

D|---------------------------------------------------------------|
A|---------------------------------------------------------------|
F|-14-------10-------12------14------12---10---12------10------9-|
C|----12-12----12-12---12-12---12-12---12---12---10-10---10-10---|
G|---------------------------------------------------------------|
C|---------------------------------------------------------------|


D|--------------------------------------|
A|--------------------------------------|
F|-10-----9-----10------12-----10---9---|
C|----8-8---8-8----8--8----8-8----8---8-|
G|--------------------------------------|
C|--------------------------------------|

D|-----------------------------------15-17-18-17-15-------------------------|
A|--------------------------15-17-18---------------18-17-15-----------------|
F|------------------14-15-17-------------------------------17-15-14---------|
C|----------14-15-17-----------------------------------------------17-15-14-| X2
G|-13-15-17-----------------------------------------------------------------|
C|--------------------------------------------------------------------------|

3rd time play

D|----------------------------------------------------------------------------------------------|
A|-----------------------------------------------------------------------10-11-13-11-10---------|
F|-14-------10-------12------14------12---10---12------10------9-9-10-12----------------12-10-9-|
C|----12-12----12-12---12-12---12-12---12---12---10-10---10-10----------------------------------|
G|----------------------------------------------------------------------------------------------|
C|----------------------------------------------------------------------------------------------|

D|--------------------------------------|
A|--------------------------------------|
F|-10-----9-----10------12-----10---9---|
C|----8-8---8-8----8--8----8-8----8---8-|
G|--------------------------------------|
C|--------------------------------------|

D|-----------------------------------15-17-18-17-15-------------------------|
A|--------------------------15-17-18---------------18-17-15-----------------|
F|------------------14-15-17-------------------------------17-15-14---------|
C|----------14-15-17-----------------------------------------------17-15-14-|
G|-13-15-17-----------------------------------------------------------------|
C|--------------------------------------------------------------------------|

D|-17----------------15-17-15----------15----------------13-15-13----------|
A|----18-15-15-17-18----------18-17-15----17-13-13-15-17----------17-15-13-|
F|-------------------------------------------------------------------------|
C|-------------------------------------------------------------------------|
G|-------------------------------------------------------------------------|
C|-------------------------------------------------------------------------|

D|-13----------------11-13-11----------|
A|----15-11-11-13-15----------15-13-11-|
F|-------------------------------------|
C|-------------------------------------|
G|-------------------------------------|
C|-------------------------------------|

Tapped Arpeggios

    t        t       t         t        t        t        t        t
D|-18-13-10-18-13-10-------------------20-15-12-20-15-12-------------------|
A|-------------------18-15-12-18-15-12-------------------20-17-13-20-17-13-|
F|-------------------------------------------------------------------------|
C|-------------------------------------------------------------------------|
G|-------------------------------------------------------------------------|
C|-------------------------------------------------------------------------|

D|-17----------------15-17-15----------15----------------13-15-13----------|
A|----18-15-15-17-18----------18-17-15----17-13-13-15-17----------17-15-13-|
F|-------------------------------------------------------------------------|
C|-------------------------------------------------------------------------|
G|-------------------------------------------------------------------------|
C|-------------------------------------------------------------------------|

D|-13----------------11-13-11----------|
A|----15-11-11-13-15----------15-13-11-|
F|-------------------------------------|
C|-------------------------------------|
G|-------------------------------------|
C|-------------------------------------|
                     t                                   t
D|------------10-13-18-13-10----------------------12-15-20-15-12-----------|
A|----------11---------------11----------------13----------------13--------|
F|-------10---------------------10-----------12---------------------12-----|
C|----12--------------------------12------14--------------------------14---|
G|-13-------------------------------13-15-------------------------------15-|
C|-------------------------------------------------------------------------|

| t tap
| /  slide up
| \  slide down
| h  hammer-on
| p  pull-off
| ~  vibrato
| +  harmonic
| x  Mute note
=============================================================
Tap to rate this tab
# A B C D E F G H I J K L M N O P Q R S T U V W X Y Z