Song name
# A B C D E F G H I J K L M N O P Q R S T U V W X Y Z

Darkest Hour - No God tab

[-----------------------------------------------------------------]
[-----------------------------------------------------------------]
[-----------------------------------------------------------------]
[-----------------------------------------------------------------]
[--875-0-5--0---8745--------875-0-5--0---8745---------------------]
[--875-0-5--0---8745--------875-0-5--0---8745--------12---8-------]

[-----------------------------------------------------------------]
[-----------------------------------------------------------------]
[-----------------------------------------------------------------]
[-----------------------------------------------------------------]
[--875-0-5--0---8745--------875-0-5--0---8745---------------------]
[--875-0-5--0---8745--------875-0-5--0---8745--------12---8-------]

[-----------------------------------------------------------------]
[-----------------------------------------------------------------]
[-----------------------------------------------------------------]
[-----------------------------------------------------------------]
[-----------------------------------------------------------------]
[--8-7-8----8-8-7-8--5-5--7-8-10-10-10-10-8-8--7-7----------------]



sorry for the F***ed up tabbing.. 
Tap to rate this tab
 
# A B C D E F G H I J K L M N O P Q R S T U V W X Y Z