Song name
# A B C D E F G H I J K L M N O P Q R S T U V W X Y Z

Darkest Hour - The Tides tab

||-----------------------------------------------------||
||-----------------------------------------------------||
||-----------------------------------------------------||
||-----------------------------------------------------||
||-------6---5-------5---10-------10---9-------9---6---||
||-0-0-0---0---0-0-0---0----0-0-0----0---0-0-0---0-----||
   . . .   .   . . .   .    . . .    .   . . .   .

||-----------------------------------------------------||
||-----------------------------------------------------||
||-----------------------------------------------------||
||-----------------------------------------------------||
||-------10-10-10-------9-9-9-------9-9-9-------6-6-6--||
||-6-6-6----------6-6-6-------5-5-5-------1-1-1--------||
   . . .          . . .       . . .       . . . 


im working on the rest of the song. ill put it up when i figure it out
Tap to rate this tab
# A B C D E F G H I J K L M N O P Q R S T U V W X Y Z