Song name
# A B C D E F G H I J K L M N O P Q R S T U V W X Y Z

Darkest Hour - Blessed Infection tab

intro
|-------------------------------------------------------------------|
|-------------------------------------------------------------------|
|-14-14-14-12--15-15-15-14--12-12-12-10--10-10-10-10-10--8--8--8--8-|
|-------------------------------------------------------------------|
|-12-12-12-10--13-13-13-12--10-10-10--8--12-12-12-12-12-10-10-10-10-|
|-------------------------------------------------------------------|

|----------------------------------------|--------------|
|----------------------------------------|--------------|
|-14-14-14-12--17-17-17-15--12-12-12-10--|-17-15-12-14--|
|----------------------------------------|--------------|
|-12-12-12-10--15-15-15-13--10-10-10--8--|-15-13-10-12--|
|----------------------------------------|--------------|

verse riff
gtrs 1 & 2 twice then guitar 2's higher part comes in

|---------------------------------------------------------------------------|
|---------------------------------------------------------------------------|
|---------------------------------------------------------------------------|
|---------------------------------------------------------------------------|
|-----8---8----------10----10----8----7--------8---8-------8---8---7---5----|
|-0-0---0---10-10-10----10----10---10---10-8-8---8---8-5-5---5---5---5------|

gtr 2
|--------------------------------------------------------------------------------|
|--------------------------------------------------------------------------------|
|--------------------------------------------------------------------------------|
|----------------------------------------------------------------7---7---5---8-8-|
|-----12---12----------13----13----12----10--------12---12-----------------------|
|-0-0----0----10-10-10----10----10----10----10-8-8----8----8-5-5---5---5---5-----|

Tap to rate this tab
 
# A B C D E F G H I J K L M N O P Q R S T U V W X Y Z