Song name
# A B C D E F G H I J K L M N O P Q R S T U V W X Y Z

Darkest Hour - The Hollow tab

-Darkest Hour
--The Hollow



D|-----------|
A|-----------|
F|-----------|
C|-0~-----0--|
G|-0~-----0--|
C|-0~-----0--|


[VERSE]

D|---------------------------------------------------------------------|
A|---------------------------------------------------------------------|
F|---------------------------------------------------------------------|
C|---------------------------------------------------------------------|
G|-8-----7-----8---8-----7-----8-----7-----5-----7----10-10-10-10--8-7-|
C|---0-0---0-0---0---0-0---0-0---0-----8-8---8-8---8-------------------|
     . .   . .   .   . .   . .   .     . .   . .   .

 and the harmony part:

D|---------------------------------------------------------------------|
A|---------------------------------------------------------------------|
F|---------------------------------------------------------------------|
C|-7-----5-----7---7-----5-----7-----5-----------5----8-8-8-8--7-5-----|
G|-----------------------------------------8---------------------------|
C|---0-0---0-0---0---0-0---0-0---0-----8-8---8-8---8-------------------|
     . .   . .   .   . .   . .   .     . .   . .   .

Next riff:

D|------------------------------------|
A|------------------------------------|
F|------------------------------------|
C|------------------------------------|
G|-----5-5-----3-3-----1------3-----5-|
C|-0-0-----0-0-----0-0-----1-----3----|
   . .     . .     . .

I'd do more but I can't figure out wth is going on in the chorus 8)
Tap to rate this tab
 
# A B C D E F G H I J K L M N O P Q R S T U V W X Y Z