Song name
# A B C D E F G H I J K L M N O P Q R S T U V W X Y Z

Darkest Hour - Terra Nocturnus tab

Tuning CGCFAD

|-----------------------------------------------------------------------------|
|-----------------------------------------------------------------------------|
|-----------------------------------------------------------------------------|
|-----8-----8-------7-----7-------8-----8-------12-----12-------7-----7-------|
|-----------------------------------------------------------------------------|
|--5-----5-------5-----5-------5-----5-------8------8--------3-----3----------|


--------------------------------------------|
--------------------------------------------|
--------------------------------------------|
-----5-----5-------7-----7-------8-----8----|
--------------------------------------------|
--3-----3-------0-----0-------0-----0-------|

Repeat 4x
Tap to rate this tab
 
# A B C D E F G H I J K L M N O P Q R S T U V W X Y Z