Song name
# A B C D E F G H I J K L M N O P Q R S T U V W X Y Z

Darkest Hour - Hierarchy Of Heathens tab

Darkest Hour
The Human Romance
Hierarchy of Heathens

Drop C tuning

I made this in guitar pro, but since I didn't do any of the other tracks I'm uploading it as text.  
I'll be glad to upload the guitar pro file if people want it though...

    PM PM PM    PM PM       PM    PM       PM PM PM    PM PM       PM    PM     
     |--3--|  |--3--|  |--3--|  |--3--|     |--3--|  |--3--|  |--3--|  |--3--|   
     E  E  E  E  E  E  E  E  E  E  E  E     E  E  E  E  E  E  E  E  E  E  E  E   
D||--------------------------------------|--------------------------------------|
A||--------------------------------------|--------------------------------------|
F||--------------------------------------|--------------------------------------|
C||--------------------------------------|-----------3-----------------------3--|
G||-----------8--------5--7-----8-----5--|--------------------3--5-----7--------|
C||--0--0--0-----0--0--------0-----0-----|--3--3--3-----3--3--------3-----3-----|


  PM PM PM    PM PM       PM    PM                                      
  |--3--|  |--3--|  |--3--|  |--3--|     |----3----|    |----3----|     
  E  E  E  E  E  E  E  E  E  E  E  E     Q    Q    Q    Q    Q    Q     
--------------------------------------|--------------------------------|
--------------------------------------|--------------------------------|
--------------------------------------|--------------------------------|
--------------------------------------|--------------------------------|
-----------8--------5--7-----8-----5--|--3----3----3----7----7----7----|
--0--0--0-----0--0--------0-----0-----|--3----3----3----7----7----7----|


  PM PM PM    PM PM       PM    PM       PM PM PM    PM PM       PM    PM     
  |--3--|  |--3--|  |--3--|  |--3--|     |--3--|  |--3--|  |--3--|  |--3--|   
  E  E  E  E  E  E  E  E  E  E  E  E     E  E  E  E  E  E  E  E  E  E  E  E   
--------------------------------------|--------------------------------------|
--------------------------------------|--------------------------------------|
--------------------------------------|--------------------------------------|
--------------------------------------|-----------3-----------------------3--|
-----------8--------5--7-----8-----5--|--------------------3--5-----7--------|
--0--0--0-----0--0--------0-----0-----|--3--3--3-----3--3--------3-----3-----|


  PM PM PM    PM PM       PM    PM       PM PM PM          PM PM PM           
  |--3--|  |--3--|  |--3--|  |--3--|     |--3--|  |--3--|  |--3--|  |--3--|   
  E  E  E  E  E  E  E  E  E  E  E  E     E  E  E  E  E  E  E  E  E  E  E  E   
--------------------------------------|--------------------------------------|
--------------------------------------|--------------------------------------|
--------------------------------------|--------------------------------------|
--------------------------------------|-----------3--3--3-----------7--7--7--|
-----------8--------5--7-----8-----5--|--------------------------------------|
--0--0--0-----0--0--------0-----0-----|--3--3--3-----------7--7--7-----------|


  PM PM PM    PM PM       PM    PM       PM PM PM    PM PM       PM    PM     
  |--3--|  |--3--|  |--3--|  |--3--|     |--3--|  |--3--|  |--3--|  |--3--|   
  E  E  E  E  E  E  E  E  E  E  E  E     E  E  E  E  E  E  E  E  E  E  E  E   
--------------------------------------|--------------------------------------|
--------------------------------------|--------------------------------------|
--------------------------------------|--------------------------------------|
--------------------------------------|-----------3-----------------------3--|
-----------8--------5--7-----8-----5--|--------------------3--5-----7--------|
--0--0--0-----0--0--------0-----0-----|--3--3--3-----3--3--------3-----3-----|


  PM PM PM    PM PM       PM    PM                                            
  |--3--|  |--3--|  |--3--|  |--3--|     |--3--|  |--3--|  |--3--|  |--3--|   
  E  E  E  E  E  E  E  E  E  E  E  E     E  E  E  E  E  E  E  E  E  E  E  E   
--------------------------------------|--------------------------------------|
--------------------------------------|--------------------------------------|
--------------------------------------|--------------------------------------|
--------------------------------------|--------------------------------------|
-----------8--------5--7-----8-----5--|--3--3--3--3--3--3--7--7--7--7--7--7--|
--0--0--0-----0--0--------0-----0-----|--3--3--3--3--3--3--7--7--7--7--7--7--|


  PM PM PM    PM PM       PM    PM       PM PM PM    PM PM       PM    PM     
  |--3--|  |--3--|  |--3--|  |--3--|     |--3--|  |--3--|  |--3--|  |--3--|   
  E  E  E  E  E  E  E  E  E  E  E  E     E  E  E  E  E  E  E  E  E  E  E  E   
--------------------------------------|--------------------------------------|
--------------------------------------|--------------------------------------|
--------------------------------------|--------------------------------------|
--------------------------------------|-----------3-----------------------3--|
-----------8--------5--7-----8-----5--|--------------------3--5-----7--------|
--0--0--0-----0--0--------0-----0-----|--3--3--3-----3--3--------3-----3-----|


  PM PM PM    PM PM       PM    PM       PM PM PM    PM    PM PM PM           
  |--3--|  |--3--|  |--3--|  |--3--|     |--3--|  |--3--|  |--3--|  |--3--|   
  E  E  E  E  E  E  E  E  E  E  E  E     E  E  E  E  E  E  E  E  E  E  E  E   
--------------------------------------|--------------------------------------|
--------------------------------------|--------------------------------------|
--------------------------------------|--------------------------------------|
--------------------------------------|-----------3-----7-----------2--------|
-----------8--------5--7-----8-----5--|--------------------------------3--0--|
--0--0--0-----0--0--------0-----0-----|--3--3--3-----3-----2--2--2-----------|


  PM PM PM    PM PM       PM    PM       PM PM PM    PM PM       PM    PM     
  |--3--|  |--3--|  |--3--|  |--3--|     |--3--|  |--3--|  |--3--|  |--3--|   
  E  E  E  E  E  E  E  E  E  E  E  E     E  E  E  E  E  E  E  E  E  E  E  E   
--------------------------------------|--------------------------------------|
--------------------------------------|--------------------------------------|
--------------------------------------|--------------------------------------|
--------------------------------------|-----------3-----------------------3--|
-----------8--------5--7-----8-----5--|--------------------3--5-----7--------|
--0--0--0-----0--0--------0-----0-----|--3--3--3-----3--3--------3-----3-----|


  PM PM PM    PM PM       PM    PM                                            
  |--3--|  |--3--|  |--3--|  |--3--|     |--3--|  |--3--|  |--3--|  |--3--|   
  E  E  E  E  E  E  E  E  E  E  E  E     E  E  E  E  E  E  E  E  E  E  E  E   
--------------------------------------|--------------------------------------|
--------------------------------------|--------------------------------------|
--------------------------------------|--------------------------------------|
--------------------------------------|--------------------------------------|
-----------8--------5--7-----8-----5--|--3--3--3--3--3--3--7--7--7--7--7--7--|
--0--0--0-----0--0--------0-----0-----|--3--3--3--3--3--3--7--7--7--7--7--7--|


  PM PM PM PM PM PM  PM  PM  PM  PM  PM  PM    PM PM PM PM PM PM PM PM PM PM PM PM  
  |--3--|  |--3--|   |---3---|   |---3---|     |--3--|  |--3--|  |--3--|  |--3--|   
  E  E  E  E  E  E   E   E   E   E   E   E     E  E  E  E  E  E  E  E  E  E  E  E   
--------------------------------------------|--------------------------------------|
--------------------------------------------|--------------------------------------|
--------------------------------------------|--------------------------------------|
--------------------------------------------|--------------------------------------|
--------------------------------------------|--------------------------------------|
--8--8--8--8--8--8--10--10--10--10--10--10--|--0--0--0--0--0--0--0--0--0--0--0--0--|


  PM PM PM PM PM PM PM PM PM PM PM PM    PM PM PM PM PM PM PM PM PM PM PM PM  
  |--3--|  |--3--|  |--3--|  |--3--|     |--3--|  |--3--|  |--3--|  |--3--|   
  E  E  E  E  E  E  E  E  E  E  E  E     E  E  E  E  E  E  E  E  E  E  E  E   
--------------------------------------|--------------------------------------|
--------------------------------------|--------------------------------------|
--------------------------------------|--------------------------------------|
--------------------------------------|--------------------------------------|
--------------------------------------|--------------------------------------|
--8--8--8--8--8--8--3--3--3--5--5--5--|--0--0--0--0--0--0--3--3--3--5--5--5--|


  PM PM PM PM PM PM  PM  PM  PM  PM  PM  PM    PM PM PM PM PM PM PM PM PM PM PM PM  
  |--3--|  |--3--|   |---3---|   |---3---|     |--3--|  |--3--|  |--3--|  |--3--|   
  E  E  E  E  E  E   E   E   E   E   E   E     E  E  E  E  E  E  E  E  E  E  E  E   
--------------------------------------------|--------------------------------------|
--------------------------------------------|--------------------------------------|
--------------------------------------------|--------------------------------------|
--------------------------------------------|--------------------------------------|
--------------------------------------------|--------------------------------------|
--8--8--8--8--8--8--10--10--10--10--10--10--|--0--0--0--0--0--0--0--0--0--0--0--0--|


  |--3--|  |--3--|  |--3--|  |--3--|     |--3--|  |--3--|  |--3--|  |--3--|   
  E  E  E  E  E  E  E  E  E  E  E  E     E  E  E  E  E  E  E  E  E  E  E  E   
--------------------------------------|--------------------------------------|
--------------------------------------|--------------------------------------|
--------------------------------------|--------------------------------------|
--------------------------------------|--------------------------------------|
--5--5--5--5--5--5--5--5--5--5--5--5--|--5--5--5--5--5--5--5--5--5--5--5--5--|
--5--5--5--5--5--5--5--5--5--5--5--5--|--5--5--5--5--5--5--5--5--5--5--5--5--|


  |--3--|  |--3--|  |--3--|  |--3--|     |--3--|  |--3--|  |--3--|  |---3--|   
  E  E  E  E  E  E  E  E  E  E  E  E     E  E  E  E  E  E  E  E  E  E  E   E   
--------------------------------------|---------------------------------------|
--------------------------------------|---------------------------------------|
--------------------------------------|---------------------------------------|
--------------------------------------|--7--5-----5---------------------------|
--7--7--7--7--7--7--7--7--7--7--7--7--|--------8-----8--7--8--7--5--7--5------|
--7--7--7--7--7--7--7--7--7--7--7--7--|-----------------------------------10--|


    |--3--|  |--3--|   |---3---|  |--3--|     |--3--|  |--3--|   |---3---|   |---3---|   
    E  E  E  E  E  E   E   E   E  E  E  E     E  E  E  E  E  E   E   E   E   E   E   E   
|------------------------------------------|--------------------------------------------|
|------------------------------------------|--------------------------------------------|
|*-----------7--7--7--------------7--7--7--|-----------7--7--7--------------------------|
|*--8--8--8-----------10--10--10-----------|--7--7--7-----------10--10--10--10--10--10--|
|------------------------------------------|--------------------------------------------|
|------------------------------------------|--------------------------------------------|


  |--3--|  |--3--|   |---3---|  |--3--|      |---3---|   |--3--|  |--3--|  |---3--|   
  E  E  E  E  E  E   E   E   E  E  E  E      E   E   E   E  E  E  E  E  E  E  E   E   
-----------------------------------------|-------------------------------------------|
-----------------------------------------|-------------------------------------------|
-----------7--7--7--------------7--7--7--|--10--10--10--10--9--7--9--9--9--9--7------|
--8--8--8-----------10--10--10-----------|---------------------------------------10--|
-----------------------------------------|-------------------------------------------|
-----------------------------------------|-------------------------------------------|


  |--3--|  |--3--|   |---3---|  |--3--|     |--3--|  |--3--|   |---3---|   |---3---|   
  E  E  E  E  E  E   E   E   E  E  E  E     E  E  E  E  E  E   E   E   E   E   E   E   
-----------------------------------------|--------------------------------------------|
-----------------------------------------|--------------------------------------------|
-----------7--7--7--------------7--7--7--|-----------7--7--7--------------------------|
--8--8--8-----------10--10--10-----------|--7--7--7-----------10--10--10--10--10--10--|
-----------------------------------------|--------------------------------------------|
-----------------------------------------|--------------------------------------------|


   |---3---|  |--3--|   |---3---|  |--3--|      |---3---|   |--3--|  |--3--|  |---3--|     
   E   E   E  E  E  E   E   E   E  E  E  E      E   E   E   E  E  E  E  E  E  E  E   E     
--------------------------------------------|--------------------------------------------||
--------------------------------------------|--------------------------------------------||
--------------7--7--7--------------7--7--7--|--10--10--10--10--9--7--9--9--9--9--7------*||
-----------------------10--10--10-----------|---------------------------------------10--*||
--10--10--10--------------------------------|--------------------------------------------||
--------------------------------------------|--------------------------------------------||


  PM PM PM    PM PM       PM    PM       PM PM PM    PM PM       PM    PM     
  |--3--|  |--3--|  |--3--|  |--3--|     |--3--|  |--3--|  |--3--|  |--3--|   
  E  E  E  E  E  E  E  E  E  E  E  E     E  E  E  E  E  E  E  E  E  E  E  E   
--------------------------------------|--------------------------------------|
--------------------------------------|--------------------------------------|
--------------------------------------|--------------------------------------|
--------------------------------------|-----------3-----------------------3--|
-----------8--------5--7-----8-----5--|--------------------3--5-----7--------|
--0--0--0-----0--0--------0-----0-----|--3--3--3-----3--3--------3-----3-----|


  PM PM PM    PM PM       PM    PM                                      
  |--3--|  |--3--|  |--3--|  |--3--|     |----3----|    |----3----|     
  E  E  E  E  E  E  E  E  E  E  E  E     Q    Q    Q    Q    Q    Q     
--------------------------------------|--------------------------------|
--------------------------------------|--------------------------------|
--------------------------------------|--------------------------------|
--------------------------------------|--------------------------------|
-----------8--------5--7-----8-----5--|--3----3----3----7----7----7----|
--0--0--0-----0--0--------0-----0-----|--3----3----3----7----7----7----|


  PM PM PM    PM PM       PM    PM       PM PM PM    PM PM       PM    PM     
  |--3--|  |--3--|  |--3--|  |--3--|     |--3--|  |--3--|  |--3--|  |--3--|   
  E  E  E  E  E  E  E  E  E  E  E  E     E  E  E  E  E  E  E  E  E  E  E  E   
--------------------------------------|--------------------------------------|
--------------------------------------|--------------------------------------|
--------------------------------------|--------------------------------------|
--------------------------------------|-----------3-----------------------3--|
-----------8--------5--7-----8-----5--|--------------------3--5-----7--------|
--0--0--0-----0--0--------0-----0-----|--3--3--3-----3--3--------3-----3-----|


  PM PM PM    PM PM       PM    PM       PM PM PM    PM    PM PM PM           
  |--3--|  |--3--|  |--3--|  |--3--|     |--3--|  |--3--|  |--3--|  |--3--|   
  E  E  E  E  E  E  E  E  E  E  E  E     E  E  E  E  E  E  E  E  E  E  E  E   
--------------------------------------|--------------------------------------|
--------------------------------------|--------------------------------------|
--------------------------------------|--------------------------------------|
--------------------------------------|-----------3-----7-----------2--------|
-----------8--------5--7-----8-----5--|--------------------------------3--0--|
--0--0--0-----0--0--------0-----0-----|--3--3--3-----3-----2--2--2-----------|


  PM PM PM    PM PM       PM    PM       PM PM PM    PM PM       PM    PM     
  |--3--|  |--3--|  |--3--|  |--3--|     |--3--|  |--3--|  |--3--|  |--3--|   
  E  E  E  E  E  E  E  E  E  E  E  E     E  E  E  E  E  E  E  E  E  E  E  E   
--------------------------------------|--------------------------------------|
--------------------------------------|--------------------------------------|
--------------------------------------|--------------------------------------|
--------------------------------------|-----------3-----------------------3--|
-----------8--------5--7-----8-----5--|--------------------3--5-----7--------|
--0--0--0-----0--0--------0-----0-----|--3--3--3-----3--3--------3-----3-----|


  PM PM PM    PM PM       PM    PM                                            
  |--3--|  |--3--|  |--3--|  |--3--|     |--3--|  |--3--|  |--3--|  |--3--|   
  E  E  E  E  E  E  E  E  E  E  E  E     E  E  E  E  E  E  E  E  E  E  E  E   
--------------------------------------|--------------------------------------|
--------------------------------------|--------------------------------------|
--------------------------------------|--------------------------------------|
--------------------------------------|--------------------------------------|
-----------8--------5--7-----8-----5--|--3--3--3--3--3--3--7--7--7--7--7--7--|
--0--0--0-----0--0--------0-----0-----|--3--3--3--3--3--3--7--7--7--7--7--7--|


     PM PM    PM PM    PM PM    PM PM    PM PM PM    PM PM    PM PM    PM PM  
  |--3--|  |--3--|  |--3--|  |--3--|     |--3--|  |--3--|  |--3--|  |--3--|   
  E  E  E  E  E  E  E  E  E  E  E  E     E  E  E  E  E  E  E  E  E  E  E  E   
--------------------------------------|--------------------------------------|
--------------------------------------|--------------------------------------|
--------------------------------------|--------------------------------------|
--------------------------------------|--------------------------------------|
--8--------7--------8--------5--------|-----------8--------7--------8--------|
-----8--8-----8--8-----8--8-----8--8--|--8--8--8-----8--8-----8--8-----8--8--|


     PM PM    PM PM    PM PM    PM PM                                           
  |--3--|  |--3--|  |--3--|  |--3--|     |---3--|  |--3--|  |---3--|  |--3--|   
  E  E  E  E  E  E  E  E  E  E  E  E     E   E  E  E  E  E  E   E  E  E  E  E   
--------------------------------------|----------------------------------------|
--------------------------------------|----------------------------------------|
--------------------------------------|----------------------------------------|
--------------------------------------|--5S--7--7--7--7--7--7S--5--5--5--5--5--|
--8--------7--------8--------5--------|----------------------------------------|
-----0--0-----0--0-----0--0-----0--0--|----------------------------------------|


     PM PM    PM PM    PM PM    PM PM    PM PM PM    PM PM    PM PM    PM PM  
  |--3--|  |--3--|  |--3--|  |--3--|     |--3--|  |--3--|  |--3--|  |--3--|   
  E  E  E  E  E  E  E  E  E  E  E  E     E  E  E  E  E  E  E  E  E  E  E  E   
--------------------------------------|--------------------------------------|
--------------------------------------|--------------------------------------|
--------------------------------------|--------------------------------------|
--------------------------------------|--------------------------------------|
--8--------7--------8--------5--------|-----------8--------7--------8--------|
-----8--8-----8--8-----8--8-----8--8--|--8--8--8-----8--8-----8--8-----8--8--|


     PM PM    PM PM    PM PM    PM PM                                              
  |--3--|  |--3--|  |--3--|  |--3--|     |---3--|  |--3--|   |---3---|  |---3--|   
  E  E  E  E  E  E  E  E  E  E  E  E     E  E   E  E  E  E   E   E   E  E   E  E   
--------------------------------------|-------------------------------------------|
--------------------------------------|-------------------------10----------------|
--------------------------------------|--7------------7--9--10------10--9--10--7--|
--------------------------------------|-----8------8------------------------------|
--8--------7--------8--------5--------|--------10---------------------------------|
-----0--0-----0--0-----0--0-----0--0--|-------------------------------------------|


    |--3--|  |--3--|   |---3---|  |--3--|     |--3--|  |--3--|   |---3---|   |---3---|   
    E  E  E  E  E  E   E   E   E  E  E  E     E  E  E  E  E  E   E   E   E   E   E   E   
|------------------------------------------|--------------------------------------------|
|------------------------------------------|--------------------------------------------|
|*-----------7--7--7--------------7--7--7--|-----------7--7--7--------------------------|
|*--8--8--8-----------10--10--10-----------|--7--7--7-----------10--10--10--10--10--10--|
|------------------------------------------|--------------------------------------------|
|------------------------------------------|--------------------------------------------|


  |--3--|  |--3--|   |---3---|  |--3--|      |---3---|   |--3--|  |--3--|  |---3--|   
  E  E  E  E  E  E   E   E   E  E  E  E      E   E   E   E  E  E  E  E  E  E  E   E   
-----------------------------------------|-------------------------------------------|
-----------------------------------------|-------------------------------------------|
-----------7--7--7--------------7--7--7--|--10--10--10--10--9--7--9--9--9--9--7------|
--8--8--8-----------10--10--10-----------|---------------------------------------10--|
-----------------------------------------|-------------------------------------------|
-----------------------------------------|-------------------------------------------|


  |--3--|  |--3--|   |---3---|  |--3--|     |--3--|  |--3--|   |---3---|   |---3---|   
  E  E  E  E  E  E   E   E   E  E  E  E     E  E  E  E  E  E   E   E   E   E   E   E   
-----------------------------------------|--------------------------------------------|
-----------------------------------------|--------------------------------------------|
-----------7--7--7--------------7--7--7--|-----------7--7--7--------------------------|
--8--8--8-----------10--10--10-----------|--7--7--7-----------10--10--10--10--10--10--|
-----------------------------------------|--------------------------------------------|
-----------------------------------------|--------------------------------------------|


   |---3---|  |--3--|   |---3---|  |--3--|      |---3---|   |--3--|  |--3--|  |---3--|     
   E   E   E  E  E  E   E   E   E  E  E  E      E   E   E   E  E  E  E  E  E  E  E   E     
--------------------------------------------|--------------------------------------------||
--------------------------------------------|--------------------------------------------||
--------------7--7--7--------------7--7--7--|--10--10--10--10--9--7--9--9--9--9--7------*||
-----------------------10--10--10-----------|---------------------------------------10--*||
--10--10--10--------------------------------|--------------------------------------------||
--------------------------------------------|--------------------------------------------||


    T      T   T      T   T      T   T      T     T      T  T      T  T      T  T      T   
    |---3--|   |---3--|   |---3--|   |---3--|     |---3--|  |---3--|  |---3--|  |---3--|   
    E   E  E   E   E  E   E   E  E   E   E  E     E   E  E  E   E  E  E   E  E  E   E  E   
-----------------------------------------------|------------------------------------------|
-----------------------------------------------|------------------------------------------|
*--10p--7-----10p--7-----10p--7-----10p--7-----|--9p--7-----9p--7-----9p--7-----9p--7-----|
*----------7----------7----------7----------7--|---------7---------7---------7---------7--|
-----------------------------------------------|------------------------------------------|
-----------------------------------------------|------------------------------------------|


   T      T   T      T   T      T   T      T     T      T  T      T  T      T  T      T   
   |---3--|   |---3--|   |---3--|   |---3--|     |---3--|  |---3--|  |---3--|  |---3--|   
   E   E  E   E   E  E   E   E  E   E   E  E     E   E  E  E   E  E  E   E  E  E   E  E   
----------------------------------------------|------------------------------------------|
----------------------------------------------|------------------------------------------|
--10p--7-----10p--7-----10p--7-----10p--7-----|--9p--7-----9p--7-----9p--7-----9p--7-----|
----------7----------7----------7----------7--|---------7---------7---------7---------7--|
----------------------------------------------|------------------------------------------|
----------------------------------------------|------------------------------------------|


   T      T   T      T   T      T   T      T      T      T   T      T   T      T   T      T   
   |---3--|   |---3--|   |---3--|   |---3--|      |---3--|   |---3--|   |---3--|   |---3--|   
   E   E  E   E   E  E   E   E  E   E   E  E      E   E  E   E   E  E   E   E  E   E   E  E   
----------------------------------------------|----------------------------------------------|
----------------------------------------------|----------------------------------------------|
----------------------------------------------|----------------------------------------------|
--12p--7-----12p--7-----12p--7-----12p--7-----|--10p--7-----10p--7-----10p--7-----10p--7-----|
----------8----------8----------8----------8--|----------8----------8----------8----------8--|
----------------------------------------------|----------------------------------------------|


  T      T  T      T  T      T  T      T     T      T  T      T  T      T  T      T     
  |---3--|  |---3--|  |---3--|  |---3--|     |---3--|  |---3--|  |---3--|  |---3--|     
  E   E  E  E   E  E  E   E  E  E   E  E     E   E  E  E   E  E  E   E  E  E   E  E   4x
------------------------------------------|-------------------------------------------||
------------------------------------------|-------------------------------------------||
------------------------------------------|------------------------------------------*||
--8p--5-----8p--5-----8p--5-----8p--5-----|--7p--3-----7p--3-----5p--2-----5p--2-----*||
---------5---------5---------5---------5--|---------5---------5---------3---------3---||
------------------------------------------|-------------------------------------------||


        PM  PM      PM  PM      PM  PM      PM  PM         PM  PM      PM  PM      PM  PM      PM  PM  
    |---3---|   |---3---|   |---3---|   |---3---|      |---3---|   |---3---|   |---3---|   |---3---|   
    E   E   E   E   E   E   E   E   E   E   E   E      E   E   E   E   E   E   E   E   E   E   E   E   
---------------------------------------------------|--------------------------------------------------|
---------------------------------------------------|--------------------------------------------------|
*--14----------------------12----------------------|--14----------------------15----------12----------|
*------12--12--15--12--12------12--12--14--12--12--|------12--12--15--12--12------12--12------12--12--|
---------------------------------------------------|--------------------------------------------------|
---------------------------------------------------|--------------------------------------------------|


       PM  PM      PM  PM      PM  PM      PM  PM         PM  PM      PM  PM      PM  PM      PM  PM  
   |---3---|   |---3---|   |---3---|   |---3---|      |---3---|   |---3---|   |---3---|   |---3---|   
   E   E   E   E   E   E   E   E   E   E   E   E      E   E   E   E   E   E   E   E   E   E   E   E   
--------------------------------------------------|--------------------------------------------------|
--------------------------------------------------|--------------------------------------------------|
--14----------------------12----------------------|--14----------------------15----------12----------|
------12--12--15--12--12------12--12--14--12--12--|------12--12--15--12--12------12--12------12--12--|
--------------------------------------------------|--------------------------------------------------|
--------------------------------------------------|--------------------------------------------------|


   |----3---|   |---3---|   |---3--|  |--3--|     |---3--|  |--3--|  |---3--|  |--3--|   
   E    E   E   E   E   E   E   E  E  E  E  E     E   E  E  E  E  E  E   E  E  E  E  E   
-----------------------------------------------|----------------------------------------|
-----------------------------------------------|----------------------------------------|
-----------------------------------------------|----------------------------------------|
--12S--10--10--10--10--10--10S--8--8--8--8--8--|--8S--7--7--7--7--7--7S--5--5--5--5--5--|
-----------------------------------------------|----------------------------------------|
-----------------------------------------------|----------------------------------------|


  |---3--|  |--3--|   |---3---|   |---3---|      |---3---|   |---3---|   |---3---|  |---3--|     
  E  E   E  E  E  E   E   E   E   E   E   E      E   E   E   E   E   E   E   E   E  E   E  E     
---------------------------------------------|----------13--17--13-----------------------------||
-------------------------10------------------|------15--------------15-------------------------||
--7------------7--9--10------10------10--14--|--14----------------------14----------9--10--9--*||
-----8------8--------------------12----------|------------------------------15--12------------*||
--------10-----------------------------------|-------------------------------------------------||
---------------------------------------------|-------------------------------------------------||


   T      T   T      T   T      T   T      T     T      T  T      T  T      T  T      T   
   |---3--|   |---3--|   |---3--|   |---3--|     |---3--|  |---3--|  |---3--|  |---3--|   
   E   E  E   E   E  E   E   E  E   E   E  E     E   E  E  E   E  E  E   E  E  E   E  E   
----------------------------------------------|------------------------------------------|
----------------------------------------------|------------------------------------------|
--10p--7-----10p--7-----10p--7-----10p--7-----|--9p--7-----9p--7-----9p--7-----9p--7-----|
----------7----------7----------7----------7--|---------7---------7---------7---------7--|
----------------------------------------------|------------------------------------------|
----------------------------------------------|------------------------------------------|


   T      T   T      T   T      T   T      T     T      T  T      T  T      T  T      T   
   |---3--|   |---3--|   |---3--|   |---3--|     |---3--|  |---3--|  |---3--|  |---3--|   
   E   E  E   E   E  E   E   E  E   E   E  E     E   E  E  E   E  E  E   E  E  E   E  E   
----------------------------------------------|------------------------------------------|
----------------------------------------------|------------------------------------------|
--10p--7-----10p--7-----10p--7-----10p--7-----|--9p--7-----9p--7-----9p--7-----9p--7-----|
----------7----------7----------7----------7--|---------7---------7---------7---------7--|
----------------------------------------------|------------------------------------------|
----------------------------------------------|------------------------------------------|


   T      T   T      T   T      T   T      T                                          
   |---3--|   |---3--|   |---3--|   |---3--|     |--3--|  |--3--|  |--3--|  |--3--|   
   E   E  E   E   E  E   E   E  E   E   E  E     E  E  E  E  E  E  E  E  E  E  E  E   
----------------------------------------------|--------------------------------------|
----------------------------------------------|--------------------------------------|
----------------------------------------------|--5--------5--------5--------5--------|
--12p--7-----12p--7-----12p--7-----12p--7-----|-----7--------7--------7--------7-----|
----------8----------8----------8----------8--|--------8--------8--------8--------8--|
----------------------------------------------|--------------------------------------|


  |--3--|  |--3--|  |--3--|  |--3--|     |--3--|  |--3--|  |--3--|  |--3--|   
  E  E  E  E  E  E  E  E  E  E  E  E     E  E  E  E  E  E  E  E  E  E  E  E   
--------------------------------------|--------------------------------------|
--------------------------------------|--------------------------------------|
--------------------------------------|--------------------------------------|
--------------------------------------|--------------------------------------|
--5--5--5--5--5--5--5--5--5--5--5--5--|--5--5--5--5--5--5--5--5--5--5--5--5--|
--5--5--5--5--5--5--5--5--5--5--5--5--|--5--5--5--5--5--5--5--5--5--5--5--5--|


  |--3--|  |--3--|  |--3--|  |--3--|     |--3--|  |--3--|  |--3--|  |---3--|   
  E  E  E  E  E  E  E  E  E  E  E  E     E  E  E  E  E  E  E  E  E  E  E   E   
--------------------------------------|---------------------------------------|
--------------------------------------|---------------------------------------|
--------------------------------------|---------------------------------------|
--------------------------------------|--7--5-----5---------------------------|
--7--7--7--7--7--7--7--7--7--7--7--7--|--------8-----8--7--8--7--5--7--5------|
--7--7--7--7--7--7--7--7--7--7--7--7--|-----------------------------------10--|


    |--3--|  |--3--|   |---3---|  |--3--|     |--3--|  |--3--|   |---3---|   |---3---|   
    E  E  E  E  E  E   E   E   E  E  E  E     E  E  E  E  E  E   E   E   E   E   E   E   
|------------------------------------------|--------------------------------------------|
|------------------------------------------|--------------------------------------------|
|*-----------7--7--7--------------7--7--7--|-----------7--7--7--------------------------|
|*--8--8--8-----------10--10--10-----------|--7--7--7-----------10--10--10--10--10--10--|
|------------------------------------------|--------------------------------------------|
|------------------------------------------|--------------------------------------------|


  |--3--|  |--3--|   |---3---|  |--3--|      |---3---|   |--3--|  |--3--|  |---3--|   
  E  E  E  E  E  E   E   E   E  E  E  E      E   E   E   E  E  E  E  E  E  E  E   E   
-----------------------------------------|-------------------------------------------|
-----------------------------------------|-------------------------------------------|
-----------7--7--7--------------7--7--7--|--10--10--10--10--9--7--9--9--9--9--7------|
--8--8--8-----------10--10--10-----------|---------------------------------------10--|
-----------------------------------------|-------------------------------------------|
-----------------------------------------|-------------------------------------------|


  |--3--|  |--3--|   |---3---|  |--3--|     |--3--|  |--3--|   |---3---|   |---3---|   
  E  E  E  E  E  E   E   E   E  E  E  E     E  E  E  E  E  E   E   E   E   E   E   E   
-----------------------------------------|--------------------------------------------|
-----------------------------------------|--------------------------------------------|
-----------7--7--7--------------7--7--7--|-----------7--7--7--------------------------|
--8--8--8-----------10--10--10-----------|--7--7--7-----------10--10--10--10--10--10--|
-----------------------------------------|--------------------------------------------|
-----------------------------------------|--------------------------------------------|


   |---3---|  |--3--|   |---3---|  |--3--|      |---3---|   |--3--|  |--3--|  |---3--|     
   E   E   E  E  E  E   E   E   E  E  E  E      E   E   E   E  E  E  E  E  E  E  E   E     
--------------------------------------------|--------------------------------------------||
--------------------------------------------|--------------------------------------------||
--------------7--7--7--------------7--7--7--|--10--10--10--10--9--7--9--9--9--9--7------*||
-----------------------10--10--10-----------|---------------------------------------10--*||
--10--10--10--------------------------------|--------------------------------------------||
--------------------------------------------|--------------------------------------------||


  |--3--|  |--3--|   |---3---|  |--3--|      |---3---|   |--3--|  |--3--|  |---3--|   
  E  E  E  E  E  E   E   E   E  E  E  E      E   E   E   E  E  E  E  E  E  E  E   E   
-----------------------------------------|-------------------------------------------|
-----------------------------------------|-------------------------------------------|
-----------7--7--7--------------7--7--7--|--10--10--10--10--9--7--9--9--9--9--7------|
--8--8--8-----------10--10--10-----------|---------------------------------------10--|
-----------------------------------------|-------------------------------------------|
-----------------------------------------|-------------------------------------------|


      PM PM PM PM        PM PM PM PM PM        PM PM PM PM PM                     
  |---3--|  |--3--|  |---3--|  |--3--|     |---3--|  |--3--|  |---3--|  |--3--|   
  E   E  E  E  E  E  E   E  E  E  E  E     E   E  E  E  E  E  E   E  E  E  E  E   
----------------------------------------|----------------------------------------|
----------------------------------------|----------------------------------------|
----------------------------------------|----------------------------------------|
----------------------------------------|----------------------------------------|
----------------------------------------|---------------------3S--5--5--5--5--5--|
--3p--0--0--0--0--0--3p--0--0--0--0--0--|--3p--0--0--0--0--0---------------------|


      PM PM PM PM PM     PM PM PM PM PM        PM PM PM PM PM                     
  |---3--|  |--3--|  |---3--|  |--3--|     |---3--|  |--3--|  |---3--|  |--3--|   
  E   E  E  E  E  E  E   E  E  E  E  E     E   E  E  E  E  E  E   E  E  E  E  E   
----------------------------------------|----------------------------------------|
----------------------------------------|----------------------------------------|
----------------------------------------|----------------------------------------|
----------------------------------------|----------------------------------------|
----------------------------------------|---------------------3S--5--5--5--5--5--|
--3p--0--0--0--0--0--3p--0--0--0--0--0--|--3p--0--0--0--0--0---------------------|


     PM PM    PM PM    PM PM    PM PM       PM PM    PM PM    PM PM    PM PM  
  |--3--|  |--3--|  |--3--|  |--3--|     |--3--|  |--3--|  |--3--|  |--3--|   
  E  E  E  E  E  E  E  E  E  E  E  E     E  E  E  E  E  E  E  E  E  E  E  E   
--------------------------------------|--------------------------------------|
--------------------------------------|--------------------------------------|
--7--------7--------7--------7--------|--5--------5--------5--------5--------|
-----0--0-----0--0-----0--0-----0--0--|-----0--0-----0--0-----0--0-----0--0--|
--------------------------------------|--------------------------------------|
--------------------------------------|--------------------------------------|


     PM PM    PM PM    PM PM    PM PM                                         
  |--3--|  |--3--|  |--3--|  |--3--|     |--3--|  |--3--|  |--3--|  |--3--|   
  E  E  E  E  E  E  E  E  E  E  E  E     E  E  E  E  E  E  E  E  E  E  E  E   
--------------------------------------|--------------------------------------|
--------------------------------------|--------------------------------------|
--3--------3--------3--------3--------|--------------------------------------|
-----0--0-----0--0-----0--0-----0--0--|--7--7--7--5--5--5--------------------|
--------------------------------------|--------------------8--8--8--7--7--7--|
--------------------------------------|--------------------------------------|


   |---3---|   |---3---|   |---3---|   |---3---|      |---3---|   |---3---|   |---3---|   |---3---|   
   E   E   E   E   E   E   E   E   E   E   E   E      E   E   E   E   E   E   E   E   E   E   E   E   
--------------------------------------------------|--------------------------------------------------|
--------------------------------------------------|--------------------------------------------------|
--14----------------------12----------------------|--14----------------------15----------12----------|
------12--12--15--12--12------12--12--14--12--12--|------12--12--15--12--12------12--12------12--12--|
--------------------------------------------------|--------------------------------------------------|
--------------------------------------------------|--------------------------------------------------|


   |---3---|   |---3---|   |---3---|   |---3---|      |---3---|   |---3---|   |---3---|   |---3---|   
   E   E   E   E   E   E   E   E   E   E   E   E      E   E   E   E   E   E   E   E   E   E   E   E   
--------------------------------------------------|--------------------------------------------------|
--------------------------------------------------|--------------------------------------------------|
--14----------------------12----------------------|--14----------------------15----------12----------|
------12--12--15--12--12------12--12--14--12--12--|------12--12--15--12--12------12--12------12--12--|
--------------------------------------------------|--------------------------------------------------|
--------------------------------------------------|--------------------------------------------------|


   |---3---|   |---3---|   |--3--|  |--3--|     |--3--|  |--3--|  |--3--|  |--3--|   
   E   E   E   E   E   E   E  E  E  E  E  E     E  E  E  E  E  E  E  E  E  E  E  E   
---------------------------------------------|--------------------------------------|
---------------------------------------------|--------------------------------------|
---------------------------------------------|--------------------------------------|
--12--10--10--10--10--10--10--8--8--8--8--8--|--8--7--7--7--7--7--7--5--5--5--5--5--|
---------------------------------------------|--------------------------------------|
---------------------------------------------|--------------------------------------|


  |---3--|  |--3--|   |---3---|   |---3---|      |---3---|   |---3---|   |---3---|   |---3---|   
  E  E   E  E  E  E   E   E   E   E   E   E      E   E   E   E   E   E   E   E   E   E   E   E   
---------------------------------------------|----------13--17--13------------------------------|
-------------------------10------------------|------15--------------15--------------------------|
--7------------7--9--10------10------10--14--|--14----------------------14----------------------|
-----8------8--------------------12----------|------------------------------15--12--14--15--14--|
--------10-----------------------------------|--------------------------------------------------|
---------------------------------------------|--------------------------------------------------|


   W                   W                  
--------------------|-------------------||
--------------------|-------------------||
--------------------|-------------------||
--12----------------|--L----------------||
--------------------|-------------------||
--------------------|-------------------||
Tap to rate this tab
 
# A B C D E F G H I J K L M N O P Q R S T U V W X Y Z