Song name
# A B C D E F G H I J K L M N O P Q R S T U V W X Y Z

Darkest Hour - These Fevered Times tab

ive posted before and i know now that all this is right. the sweeping is right...
the solo isnt perfect, but most of it is.
\
palm mutes are obvious.  listen to song.

Verse part 1
D|------------------------------------------|
A|------------------------------------------|
F|------------------------------------------|
C|----6---7---4---6-------------------------|
G|--------------------7----4-5-7------------|
C|--4---4---4---4---4---4---------2---------|
PM  .   .   .   .   .   . 


D|------------------------------------------|
A|------------------------------------------|
F|------------------------------------------|
C|----6---7---4---6---------9-7-6-----------|
G|--------------------7---------------------|
C|--4---4---4---4---4---4-----------0-------|
    .   .   .   .   .   .
D|------------------------------------------|
A|------------------------------------------|
F|------------------------------------------|
C|----6---7---4---6-------------------------|
G|--------------------7----4-5-7------------|
C|--0---0---0---0---0---0---------0---------|
    .   .   .   .   .   .

D|------------------------------------------|
A|------------------------------------------|
F|------------------------------------------|
C|----6---7---4-----------------------------|
G|-----------------2--2--2--2-h4------------|
C|--0---0---0---0--2--2--2--2-h4------------|x2
    .   .   .   . 

   Verse part 2
D|--------------------------------------------------------|
A|--------------------------------------------------------|
F|----------7------------------------9--------------------|
C|---7-9-10---10---10p9p7h9---7-9-10---10--10p9p7h9-------|
G|--7-7-7--7-7--7------------8-8-8--8-8--8----------------|
C|--------------------------------------------------------|
    . . .  . .  .            . . .  . .  .   

D|-----------------------------------------------------------|
A|-----------------------------------------------------------|
F|----------7------------------------------------------------|
C|---7-9-10---10---10p9p7-----2h3--3--3p2p0---5h7--7p5p0-----|
G|--7-7-7--7-7--7--------------------------------------------|
C|-------------------------3----------------5----------------|x2
    . . .  . .  .

then its the verse part 1 again 


   Chorus             Picking sorta showed here...not really
D|----------------------------------------------------------------|
A|----------------------------------------------------------------|
F|----------------------------------4-4-4h5-5-5-5--5-5-55--4-4-4--|
C|----------------------------------3-3-3---3-3-3--5-5-55--5-5-5--|
G|-2-2-2-22--2-222--5-5-5-55--5-555-------------------------------|
C|-2-2-2-22--2-222--5-5-5-55--5-555-------------------------------|x4



D|-----------------------------------|
A|-----------------------------------|
F|-----------------------------------|
C|-2~--------------------------------|
G|-2~----2--2-x----------------------|
C|-2~----2--2xx----------------------|



Bridge/Solo
Guitar 1
D|------------------------------------|
A|------------------------------------|
F|------------------------------------|
C|---14--14--15--12--14--10--12--9----|
G|-12--12--12--12--12--12--12--12-----|
C|------------------------------------|x3
   .   .   .   .   .   .   .   . 

D|-----------------------------------151815------------------|
A|---------------------------------15------15----------------|
F|----------------------------12/15----------15\12------12---|right into
C|--------------------------12--------------------12--12-----|riff before
G|--8p7-8--8p7-8--10-12---13------------------------13-------|
C|-----------------------------------------------------------|x3
-
Guitar 2
D|----------------------------------------------|
A|-----comes in on second time------------------|
F|----------------------------------------------|
C|---17--17--19--15--17--14--15--12-------------|
G|-12--12--12--12--12--12--12--12---------------|
C|----------------------------------------------|x2
   .   .   .   .   .   .   .   . 


D|---------------------------------------182218------------------|
A|-------------------------------------20------20----------------|
F|--------------------------------15/19----------19\15------15---|right into
C|------------------------------17--------------------17--17-----|riff before
G|--1210-12-1210-12--13-15----17------------------------17-------|
C|---------------------------------------------------------------|x3
'


D|---------------------------------------------------|
A|-10b--10b-8-6-10-8h10p8-----11p10-11-11p10-11-13-15|
F|-----------------------10br------------------------|
C|---------------------------------------------------|
G|---------------------------------------------------|
C|---------------------------------------------------|


all harmonized 1 octave down
D|-181715-------------------------------------------171820---|
A|-------181715-------------------------------171820---------|
F|-------------171514-------------------151719---------------|
C|-------------------171514---------1517---------------------|
G|-------------------------1715-1517-------------------------|
C|-----------------------------------------------------------|

all harmonized 1 octave down
D|-1713--13151715131513----------13-2017--17182018171817----------17----|
A|-----15--------------1715131517-------18--------------2018171820------|
F|----------------------------------------------------------------------|
C|----------------------------------------------------------------------|
G|----------------------------------------------------------------------|
C|----------------------------------------------------------------------|


D|-106-68108686-------6-----------------------------------|
A|----6--------1086810---8h10p8p6h8p6p5h6p5p3h5p3p1h3p1p0-|
F|--------------------------------------------------------|
C|--------------------------------------------------------|
G|--------------------------------------------------------|
C|--------------------------------------------------------|


then play the harmonized 12 10, 8 7 shit again then this


D|----------------------------------------------|
A|----------------------------------------------|
F|-------------------4-444444--5--5--4----------|
C|-2-----------------3-333333--5--5--5----------|
G|-2-222222-5-555555----------------------------|
C|-2-222222-5-555555----------------------------|


D|--------------------------------------|---------------------------------|
A|--------------------------------------|---2 guitars---------------------|
F|--------------------------------------|----arranged for one-------------|
C|--------------------------------------|-5-7-9---5-7-9---10-9--7--9--7-4-|
G|-7-9-10---7-7-9-10---12-10-9---10-9-5-|-7-9-10--7-9-10--12-10-9--10-9-5-|
C|--------0----------0---------0--------|---------------------------------|

Then play the chorus again, but only play that group of chords 2 times, and
then back into the verse part 2, all 3 parts 1 timeand then this:



D|-----------------------------------------------------------------------|
A|-----------------------------------------------------------------------|
F|--picking not shown----------------------------------------------------|
C|---------------------------------2h3-3-3p2p0-----5h7--7-7p5p0-77-5-7-7\|
G|-7-----2-3---0-----------7---2-3------------------------------77-5-7-7\|
C|-7-----2-3---0--x3 then--7---2-3--------------5---------------77-5-7-7\|
Tap to rate this tab
# A B C D E F G H I J K L M N O P Q R S T U V W X Y Z