Song name
# A B C D E F G H I J K L M N O P Q R S T U V W X Y Z

Darkest Hour - Pathos tab

Help us improve GuitareTab! Take a short survey!
  Gtr I
  S S S S S S E +H            S S S S S S E +H             S S S S S S E +H
|---------------------------|---------------------------|-----------------------------|
|---------6-----------------|---------6-----------------|----------6------------------|
|-----7-----7---------------|-----7-----7---------------|------7-----7----------------|
|---7---7-----7-(7)---------|---7---7-----7-(7)---------|----7---7-----7-(7)----------|
|-5-------------------------|-5-------------------------|--5--------------------------|
|---------------------------|---------------------------|-----------------------------|
|
| Gtr II
| H              E   E Q      H              E   E E  E    H              Q      Q
|--------------------0-1----|--------------------8-6-12-|-13-------------15-----12----|
|---------------------------|---------------------------|-----------------------------|
|--------------------0-2----|--------------------9-7-12-|-14--------------------12----|
|---------------------------|---------------------------|-----------------------------|
|---------------------------|---------------------------|-----------------------------|
|---------------------------|---------------------------|-----------------------------|
|
| Gtr III
| H              E   E E  E   H              E   E E  E    H              E   E  E  E
|----------------------0----|----------------------0----|------------------------0----|
|---------------------------|---------------------------|-----------------------------|
|-------------------10------|-------------------10------|--------------------10-------|
|------------------------12-|------------------------12-|--------------------------12-|
|---------------------------|---------------------------|-----------------------------|
|---------------------------|---------------------------|-----------------------------|


                              Bb             C
                             2/4
  S S S S S S E +H             S S       S S  S S  S  S
|---------------------------|-----------------------------|
|---------6-----------------|--------------1----------3---|
|-----7-----7---------------|------------3---------5------|
|---7---7-----7-(7)---------|----3--------------5---------|
|-5-------------------------|--1--------------3-----------|
|---------------------------|-----------------------------|
|
|                                |-3--|
| W                            S T  T T  S S  S S  S  S
|---------------------------|-----------------------------|
|---------------------------|--6-5h=6p5-------------------|
|---------------------------|------------7-5----5--7S=9---|
|---------------------------|-----------------7-----------|
|---------------------------|-----------------------------|
|---------------------------|-----------------------------|
|
|                                |-3--|
| H              E   E E  E    S T  T T  S S  S S  S  S
|----------------------0----|-----------------------------|
|---------------------------|-10-8h10p8-------------------|
|-------------------10------|-----------10-9----9-10S12---|
|------------------------12-|----------------10-----------|
|---------------------------|-----------------------------|
|---------------------------|-----------------------------|


   Verse
    Dm                        Bb       C
   4/4
     S S       S S  S S  S  S  S S S S S S   S S
||-----------------------------------------------|
||o-----------------6----------------1---------3-|
||-------------7------7-----7------3---------5---|
||-----7---------7-------7-------3-------5-------|
||o--5-------------------------1-------3---------|
||-----------------------------------------------|
|
|      |-3--|
|    S T  T T  S S  S S  S  S  E   E   E     E
||-----------------------------------------------|
||o--6-5h=6p5------------------------------------|
||-------------7-5----5--7S=9-10---9---7-----5---|
||------------------7----------------------------|
||o----------------------------------------------|
||-----------------------------------------------|
|
|      |-3--|
|    S T  T T  S S  S S  S  S  E   E   S T T E
||-----------------------------------------------|
||o-10-8h10p8-----------------10---8---6-5h6-5---|
||------------10-9----9-10S12--------------------|
||-----------------10----------------------------|
||o----------------------------------------------|
||-----------------------------------------------|


  Dm                        F         C
   S S       S S  S S  S  S  S S  S S  S S S S
|------------------------------------------------||
|-----------------6-----------------------------o||
|------------7------7-----7----------------5-----||
|----7---------7-------7----------3------5---5---||
|--5---------------------------3----3--3--------o||
|----------------------------3-------------------||
|
|    |-3--|
|  S T  T T  S S  S S  S  S  E    E    E   E
|------------------------------------------------||
|--6-5h=6p5-----------------10----8----6---5----o||
|------------7-5----5--7S=9----------------------||
|-----------------7------------------------------||
|-----------------------------------------------o||
|------------------------------------------------||
|
|    |-3--|
|  S T  T T  S S  S S  S  S  E    E    E   E
|------------------------------------------------||
|-10-8h10p8-----------------13---11---10---8----o||
|-----------10-9----9-10S12----------------------||
|----------------10------------------------------||
|-----------------------------------------------o||
|------------------------------------------------||


  Dm9                                  Fmaj7
  S  S S S S S S S S S S S   S S S S   S  S S S S S S S S S S S  S  S S S
|--------1-------1-------1---------1-|--------1-------1-------1---------1-|
|------5-------5-------5---------5---|------5-------5-------5---------5---|
|----5-------5-------5---------5-----|----5-------5-------5---------5-----|
|------------------------------------|------------------------------------|
|------------------------------------|------------------------------------|
|-0--------0-------0---------0-------|-3--------3-------3--------3--------|
| Q        Q       Q         Q         Q        Q       Q        Q
|
| Gtr IV
| H.                       a E   E     H.                       +E.     S
|------------------------------------|------------------------------------|
|------------------------------------|------------------------------------|
|------------------------------------|------------------------------------|
|-3------------------------2h3---2---|----------------------------------2-|
|------------------------------------|-3------------------------(3)-------|
|------------------------------------|------------------------------------|


  Dm9                                Fmaj7
  S  S S S S S S S S S S S S S S S   S  S S S S S  S  S S S S S S S S S
|--------1-------1-------1-------1-|--------1---------1-------1-------1----|
|------5-------5-------5-------5---|------5--------5--------5-------5------|
|----5-------5-------5-------5-----|----5-------5---------5-------5--------|
|----------------------------------|---------------------------------------|
|----------------------------------|---------------------------------------|
|-0--------0-------0-------0-------|-3--------3---------3-------3----------|
| Q        Q       Q       Q         Q        Q         Q       Q
|
| H.                       E   E     Q.           +S  S Q       Q
|----------------------------------|---------------------------------------|
|----------------------------------|---------------------------------------|
|----------------------------------|------------------3-2------------------|
|-3------------------------5---2---|----------------------------3----------|
|----------------------------------|-3------------(3)----------------------|
|----------------------------------|---------------------------------------|


    F
    Gtr I
    S   S S  S S S  S S S  S S  S   S S  S S
||-------------------------------------------|
||o------------6--------------------6--------|
||--------9------9----9------9--------9----9-|
||-----10---10-----10-----10---10-------10---|
||o-8-------------------8--------------------|
||-------------------------------------------|
|   H                   H
|
|   Gtr II
|   H.                            a E    E
||-------------------------------------------|
||o-6-----------------------------5h6----5---|
||-------------------------------------------|
||--3-----------------------------2h3----2---|
||o------------------------------------------|
||-------------------------------------------|
|
|   Gtr III
|   H.                            a E    E
||-------------------------------------------|
||o------------------------------------------|
||--2-----------------------------0h2----0---|
||-------------------------------------------|
||o------------------------------------------|
||-------------------------------------------|


  S  S S  S S S  S S S  S S  S  S  S  S  S
|-------------------------------------------||
|-----------6-------------------6----------o||
|------9------9----9------9--------9-----9--||
|---10---10-----10-----10---10-------10-----||
|-8------------------8---------------------o||
|-------------------------------------------||
| H                  H
|
| H                  Q         +E    +S  S
|-------------------------------------------||
|------------------------------------------o||
|-5------------------7---------(7)---(7)----||
|----------------------------------------2--||
|-3------------------5---------(5)---(5)---o||
|-------------------------------------------||
|
| H                  Q         +E    +S  S
|-------------------------------------------||
|------------------------------------------o||
|----------------------------------------0--||
|-2------------------3---------(3)---(3)----||
|------------------------------------------o||
|-------------------------------------------||


 Outro
  Dm9                                C
  Gtr I
  S  S S S S S S S S S S S S S S S   S  S S S S S  S  S +S  S S S Q
|----------1---------------1-------|----------0-------------------0--*|
|------5-----5---5-----5-----5---5-|------5-----5-----5-(5)---5------*|
|----5---5-----5-----5---5-----5---|----5---5------5--------5---5----*|
|----------------------------------|---------------------------------*|
|----------------------------------|-3-------------------3--------3--*|
|-0----------------0---------------|---------------------------------*|
| H                H                 H                   Q        Q
|
| Gtr IV
| H.                       E   E     Q.           +S  S  Q        Q
|----------------------------------|---------------------------------*|
|----------------------------------|---------------------------------*|
|----------------------------------|------------------3--2-----------*|
|-3------------------------5---2---|------------------------------2--*|
|----------------------------------|-3------------(3)----------------*|
|----------------------------------|---------------------------------*|

Related for Pathos tab