Song name
# A B C D E F G H I J K L M N O P Q R S T U V W X Y Z

Darkest Hour - With Friends Like These tab

band:darkest hour
song:with friends like these
by:death_penalty9

GUITAR 1
D|-----------------------------------------------------------------------------|
A|-----------------------------------------------------------------------------|
F|-----------------------------------------------------------------------------|
C|--0--------------------------------------------------------------------------|
G|--0-----5p3h5p0-5p3h5p0-5p3h5p0-5p3h5p0-5p3h5p0-5p3h5p0-5p3h5p0--------------|
C|--0--------------------------------------------------------------------------|


GUITAR 2
D|--------------------------------------------------------------------------------|
A|--------------------------------------------------------------------------------|
F|--------------------------------------------------------------------------------|
C|---0---------------------------------------------------------------5-6----------|
G|---0---------------------------------------------------------------5-6----------|
C|---0---------------------------------------------------------------5-6----------|

i will finish the tab later, i'm still figuring out the rest, but this is the intro, enjoy!
Tap to rate this tab
# A B C D E F G H I J K L M N O P Q R S T U V W X Y Z