Guitaretab - guitar tabs
Song name
# A B C D E F G H I J K L M N O P Q R S T U V W X Y Z

Darkest Hour - Stand And Receive Your Judgement tab

-----------------------------------------------------------------------
            Stand and Receive Your Judgement  Darkest Hour
-----------------------------------------------------------------------
Tabbed by: Pete_KC
Email: pete8---@hotmail.com

Tuning: Drop C (CGCFAD)

  Guitar 1 (00:00)
D|------------------------------------------------------|
A|------------------------------------------------------|
F|------------------------------------------------------|
C|---0--------------------------------------------------|
G|---0--------------------------------------------------|
C|---0--0-0-0--0-0-0--0-0-0--0-0-0--0-0-0--0-0-0--0-1---|
 |      . . .  . . .  . . .  . . .  . . .  . . .  . .
 |
 |Guitar 2
D|------------------------------------------------------|
A|------------------------------------------------------|
F|------------------------------------------------------|
C|---0--------------------------------------------------|
G|---0--------------------------------------------------|
C|---0--------------------------------------------------|


 Guitar 1
D|------------------------------------------------------|
A|------------------------------------------------------|
F|------------------------------------------------------|
C|---0-------------------------------8-----7------------|
G|---0-----------------------5-6-5-6---6-5--------------|
C|---0--0-0-0--0-0-0--0-0-0-----------------------------|
 |      . . .  . . .  . . .  . . . .   . .
 |
 |Guitar 2
D|------------------------------------------------------|
A|------------------------------------------------------|
F|------------------------------------------------------|
C|---0--------------------------------------------------|
G|---0--------------------------------------------------|
C|---0--------------------------------------------------|


 Guitar 1
D|------------------------------------------------------|
A|------------------------------------------------------|
F|------------------------------------------------------|
C|---0-----------------------0--1--0--------------------|
G|---0-----------------------0--1--0--------------------|
C|---0--0-0-0--0-0-0--0-0-0--0--1--0--------------------|
 |      . . .  . . .  . . .
 |
 |Guitar 2
D|------------------------------------------------------|
A|------------------------------------------------------|
F|------------------------------------------------------|
C|---0-----------------------0--1--0--------------------|
G|---0-----------------------0--1--0--------------------|
C|---0-----------------------0--1--0--------------------|

 Guitar 1 & 2 (00:09)
D|------------------------------------------------------|\ 
A|------------------------------------------------------| \
F|------------------------------------------------------|  |
C|---0--------------------------------------------------|  |
G|---0--------------------------------------------------|  |
C|---0--0-0-0--0-0-0--0-0-0--0-0-0--0-0-0--0-0-0--0-1---|  |
 |      . . .  . . .  . . .  . . .  . . .  . . .  . .      |
 |                                                         |
D|------------------------------------------------------|  |
A|------------------------------------------------------|  |
F|------------------------------------------------------|  |
C|---0-------------------------------8-----7------------|  |
G|---0-----------------------5-6-5-6---6-5--------------|  |
C|---0--0-0-0--0-0-0--0-0-0-----------------------------|  |
        . . .  . . .  . . .  . . . .   . .                 |
                                                           |
 Guitar 1                                                  |
D|------------------------------------------------------|  |
A|------------------------------------------------------|  |
F|------------------------------------------------------|  |
C|---0---------------------------0----------------------|  |
G|---0---------------------------0----------------------|  |
C|---0--0-0-0--0-0-0--0-0-0--0-1-0--0-0-0--0-0-0--0-1---|  |
 |      . . .  . . .  . . .  . .    . . .  . . .  . .      2X
 |                                                         |
 |Guitar 2                                                 |
D|------------------------------------------------------|  |
A|------------------------------------------------------|  |
F|------------------------------------------------------|  |
C|---0---------------------------0----------------------|  |
G|---0---------------------------0----------------------|  |
C|---0--0-0-0--0-0-0--0-0-0--0-1-0--0-0-0--0-0-0--0-1---|  |
 |      . . .  . . .  . . .  . .    . . .  . . .  . .      |
 |                                                         |
 |Guitar 1                                                 |
D|------------------------------------------------------|  |
A|------------------------------------------------------|  |
F|------------------------------------------------------|  |
C|---0-------------------------------8-----7------------|  |
G|---0-----------------------5-6-5-6---6-5--------------|  |
C|---0--0-0-0--0-0-0--0-0-0-----------------------------|  |
 |      . . .  . . .  . . .  . . . .   . .                 |
 |                                                         |
 |Guitar 2                                                 |
D|------------------------------------------------------|  |
A|-----------------------------------11-----10----------|  |
F|---------------------------7-8-7-8----8-7-------------|  |
C|---0--------------------------------------------------|  |
G|---0--------------------------------------------------| /
C|---0--0-0-0--0-0-0--0-0-0-----------------------------|/
        . . .  . . .  . . .  . . . .    . .

  Guitar 1 & 2 (00:27)
D|------------------------------------------------------|
A|------------------------------------------------------|
F|------------------------------------------------------|
C|---0--------------------------------------------------|
G|---0--0-0-0-0-0-0-0-0-0-0-0-0-0-0---------------------|
C|---0--0-0-0-0-0-0-0-0-0-0-0-0-0-0---------------------|
 |      . . . . . . . . . . . . . .
 |
D|------------------------------------------------------|
A|------------------------------------------------------|
F|------------------------------------------------------|
C|---1--------------------------------------------------|
G|---1--1-1-1-1-1-1-1-1-1-1-1-1-1-1---------------------|
C|---1--1-1-1-1-1-1-1-1-1-1-1-1-1-1---------------------|
 |      . . . . . . . . . . . . . .
 |
D|------------------------------------------------------|
A|------------------------------------------------------|
F|------------------------------------------------------|
C|---2--------------------------------------------------|
G|---2--2-2-2-2-2-2-2-2-2-2-2-2-2-2---------------------|
C|---2--2-2-2-2-2-2-2-2-2-2-2-2-2-2---------------------|
 |     . . . . . . . . . . . . . .
 |
D|------------------------------------------------------|
A|------------------------------------------------------|
F|------------------------------------------------------|
C|------------------------------------------------------|
G|---------4~-------5~-----4----------------------------|
C|---8-7-8----8-7-8----8-7------------------------------|
 |
 |
D|------------------------------------------------------|
A|------------------------------------------------------|
F|------------------------------------------------------|
C|---0--------------------------------------------------|
G|---0--0-0-0-0-0-0-0-0-0-0-0-0-0-0---------------------|
C|---0--0-0-0-0-0-0-0-0-0-0-0-0-0-0---------------------|
 |      . . . . . . . . . . . . . .
 |
D|------------------------------------------------------|
A|------------------------------------------------------|
F|------------------------------------------------------|
C|---1--------------------------------------------------|
G|---1--1--1--1--1-1-1-1-1--1-1-1-1-1-------------------|
C|---1--1--1--1--1-1-1-1-1--1-1-1-1-1-------------------|
 |      .  .  .  . . . . .  . . . . .
 |
D|------------------------------------------------------|
A|------------------------------------------------------|
F|------------------------------------------------------|
C|---2--------------------------------------------------|
G|---2--2-2-2-2-2-2-2-2-2-2-2-2-2-2---------------------|
C|---2--2-2-2-2-2-2-2-2-2-2-2-2-2-2---------------------|
 |      . . . . . . . . . . . . . .
 |
D|------------------------------------------------------|
A|------------------------------------------------------|
F|------------------------------------------------------|
C|------------------------------------------------------|
G|---------4--------5------4----------------------------|
C|---8-7-8----8-7-8----8-7------------------------------|
[ Tab from: http://www.guitaretab.com/d/darkest-hour/93229.html ]
Guitar 1 & 2 (00:46)
D|------------------------------------------------------|
A|------------------------------------------------------|
F|------------------------------------------------------|
C|---0--------------------------------------------------|
G|---0--------------------------------------------------|
C|---0--0-0-0--0-0-0--0-0-0--0-0-0--0-0-0--0-0-0--0-1---|
 |      . . .  . . .  . . .  . . .  . . .  . . .  . .
 |
D|------------------------------------------------------|
A|------------------------------------------------------|
F|------------------------------------------------------|
C|---0-------------------------------8-----7------------|
G|---0-----------------------5-6-5-6---6-5--------------|
C|---0--0-0-0--0-0-0--0-0-0-----------------------------|
 |      . . .  . . .  . . .  . . . .   . .
 |
D|------------------------------------------------------|
A|------------------------------------------------------|
F|------------------------------------------------------|
C|---0---------------------------0----------------------|
G|---0---------------------------0----------------------|
C|---0--0-0-0--0-0-0--0-0-0--0-1-0--0-0-0--0-0-0--0-1---|
 |      . . .  . . .  . . .  . .    . . .  . . .  . .
 |
D|------------------------------------------------------|
A|------------------------------------------------------|
F|------------------------------------------------------|
C|---0-------------------------------8-----7------------|
G|---0-----------------------5-6-5-6---6-5--------------|
C|---0--0-0-0--0-0-0--0-0-0-----------------------------|
        . . .  . . .  . . .  . . . .   . .

  Guitar 1 & 2 (00:55)
D|------------------------------------------------------|
A|------------------------------------------------------|
F|------------------------------------------------------|
C|---0---\----------------------------------------------|
G|---0---\--pick-slide----------------------------------|
C|---0---\----------------------------------------------|
 |
D|------------------------------------------------------|
A|------------------------------------------------------|
F|------------------------------------------------------|
C|---1---\----------------------------------------------|
G|---1---\--pick-slide----------------------------------|
C|---1---\----------------------------------------------|
 |
D|------------------------------------------------------|
A|------------------------------------------------------|
F|------------------------------------------------------|
C|---2---\----------------------------------------------|
G|---2---\--pick-slide----------------------------------|
C|---2---\----------------------------------------------|
 |
D|------------------------------------------------------|
A|------------------------------------------------------|
F|------------------------------------------------------|
C|------------------------------------------------------|
G|---------4--------5------4----------------------------|
C|---8-7-8----8-7-8----8-7------------------------------|
 |
D|------------------------------------------------------|
A|------------------------------------------------------|
F|------------------------------------------------------|
C|---0-----1-----2--------------------------------------|
G|---0-----1-----2--------------------------------------|
C|---0-----1-----2--------------------------------------|
 |
D|------------------------------------------------------|
A|------------------------------------------------------|
F|------------------------------------------------------|
C|------------------------------------------------------|
G|---------4--------5------4----------------------------|
C|---8-7-8----8-7-8----8-7------------------------------|
 |
D|------------------------------------------------------|
A|------------------------------------------------------|
F|------------------------------------------------------|
C|---0--------------------------------------------------|
G|---0--0-0-0-0-0-0-0-0-0-0-0-0-0-0-0-0-0-0-0-0-0-0-----|
C|---0--0-0-0-0-0-0-0-0-0-0-0-0-0-0-0-0-0-0-0-0-0-0-----|
        . . . . . . . . . . . . . .

I have no idea how to tab the solo... SORRY!!!

This is played with the solo

 Guitar 1 (01:23)
D|------------------------------------------------------|
A|------------------------------------------------------|
F|------------------------------------------------------|
C|---8-----7--------------------------------------------|2X
G|------------------------------------------------------|
C|-----5-5---5-5-5-5-5-5-5-5-5-5-5-5--------------------|
 |     . .   . . . . . . . . . . . .
 |
D|------------------------------------------------------|
A|------------------------------------------------------|
F|------------------------------------------------------|
C|---5-----4--------------------------------------------|2X
G|------------------------------------------------------|
C|-----2-2---2-2-2-2-2-2-2-2-2-2-2-2--------------------|
 |     . .   . . . . . . . . . . . .
 |
D|------------------------------------------------------|
A|------------------------------------------------------|
F|------------------------------------------------------|
C|---8-----7--------------------------------------------|2X
G|------------------------------------------------------|
C|-----5-5---5-5-5-5-5-5-5-5-5-5-5-5--------------------|
 |     . .   . . . . . . . . . . . .
 |
D|------------------------------------------------------|
A|------------------------------------------------------|
F|------------------------------------------------------|
C|---5-----4--------------------------------------------|2X
G|------------------------------------------------------|
C|-----2-2---2-2-2-2-2-2-2-2-2-2-2-2--------------------|

Guitar 1 (01:42)
D|------------------------------------------------------|
A|------------------------------------------------------|
F|---15--14---15--14----12--10---12--10-----------------|
C|----x---x----x---x-----x---x----x---x-----------------|
G|---13--12---13--12----10---9---10---9-----------------|
C|------------------------------------------------------|

  Guitar 1 & 2
D|----------------------------------------------------------|
A|----------------------------------------------------------|
F|---15--14---15--14---------------12--10---12--10----------|
C|----x---x----x---x----------------x---x----x---x--------1-|
G|---13--12---13--12---------------10---9---10---9--------1-|
C|--------------------5-4-0-4-3-0-------------------4-3-0-1-|
                      . . . . . .                   . . .
  Guitar 1 & 2 (01:59)
D|------------------------------------------------------|
A|------------------------------------------------------|
F|------------------------------------------------------|
C|---0--------------------------------------------------|
G|---0--------------------------------------------------|
C|---0--0-0-0--0-0-0--0-0-0--0-0-0--0-0-0--0-0-0--0-1---|
 |       . . .  . . .  . . .  . . .  . . .  . . .  . .
 |
D|------------------------------------------------------|
A|------------------------------------------------------|
F|------------------------------------------------------|
C|---0--------------------------------8-----7-0-0-0-1-0-|
G|---0------------------------5-6-5-6---6-5---0-0-0-1-0-|
C|---0---0-0-0--0-0-0--0-0-0------------------0-0-0-1-0-|
 |                             . . . .   . .
 |
D|------------------------------------------------------|
A|------------------------------------------------------|
F|------------------------------------------------------|
C|---0--------------------------------------------------|
G|---0--------------------------------------------------|
C|---0--0-0-0--0-0-0--0-0-0--0-0-0--0-0-0--0-0-0--0-1---|
 |      . . .  . . .  . . .  . . .  . . .  . . .  . .
 |
D|------------------------------------------------------|
A|------------------------------------------------------|
F|------------------------------------------------------|
C|---0-------------------------------8-----7------------|
G|---0-----------------------5-6-5-6---6-5--------------|
C|---0--0-0-0--0-0-0--0-0-0-----------------------------|
 |      . . .  . . .  . . .  . . . .   . .
 |
D|------------------------------------------------------|
A|------------------------------------------------------|
F|------------------------------------------------------|
C|---0---------------------------0----------------------|
G|---0---------------------------0----------------------|
C|---0--0-0-0--0-0-0--0-0-0--0-1-0--0-0-0--0-0-0--0-1---|
 |      . . .  . . .  . . .  . .    . . .  . . .  . .
 |
D|------------------------------------------------------|
A|------------------------------------------------------|
F|------------------------------------------------------|
C|---0-------------------------------8-----7------------|
G|---0-----------------------5-6-5-6---6-5--------------|
C|---0--0-0-0--0-0-0--0-0-0-----------------------------|
        . . .  . . .  . . .  . . . .   . .

  Guitar 1 (02:17)
D|------------------------------------------------------|
A|------------------------------------------------------|
F|------------------------------------------------------|
C|-----------8-----7---------8-----7--------------------|3X
G|---5-6-5-6---6-5---5-6-5-6---6-5----------------------|
C|------------------------------------------------------|
 |
 |Guitar 2
D|------------------------------------------------------|
A|------------------------------------------------------|
F|------------------------------------------------------|
C|---0----------1----------2----------------------------|
G|---0----------1----------2----------------------------|
C|---0----------1----------2----------------------------|

  Guitar 1 & 2
D|------------------------------------------------------|
A|------------------------------------------------------|
F|------------------------------------------------------|
C|------------------------------------------------------|
G|---------4~-------5~-----4----------------------------|
C|---8-7-8----8-7-8----8-7------------------------------|

  Guitar 1 (02:26)
D|------------------------------------------------------|
A|-----------11-----10---------11-----10----------------|
F|---7-8-7-8----8-7----7-8-7-8----8-7-------------------|
C|------------------------------------------------------|3X
G|------------------------------------------------------|
C|------------------------------------------------------|
 |
 |Guitar 2
D|------------------------------------------------------|
A|------------------------------------------------------|
F|------------------------------------------------------|
C|---0----------1----------2----------------------------|
G|---0----------1----------2----------------------------|
C|---0----------1----------2----------------------------|

  Guitar 1 (02:33)
D|--------------------------------------------------------|
A|--------------------------------------------------------|
F|--------------------------------------------------------|
C|-----------8-----7---------8-----7--0-0-0-0-0-0-0-0-0---|
G|---5-6-5-6---6-5---5-6-5-6---6-5----0-0-0-0-0-0-0-0-0---|
C|------------------------------------0-0-0-0-0-0-0-0-0---|
 |   . . . .   . .   . . . .   . .    . . . . . . . .
 |Guitar 2
D|---------------------------------------------------------|
A|-----------11-----10---------11-----10-------------------|
F|---7-8-7-8----8-7----7-8-7-8----8-7----------------------|
C|---------------------------------------0-0-0-0-0-0-0-0-0-|
G|---------------------------------------0-0-0-0-0-0-0-0-0-|
C|---------------------------------------0-0-0-0-0-0-0-0-0-|
     . . . .    . .    . . . .    . .    . . . . . . . .

| .  palm mute
| /  slide up
| \  slide down
| h  hammer-on
| p  pull-off
| ~  vibrato
| +  harmonic
| x  Mute note
=======================================================================
Related for Stand And Receive Your Judgement tab