Darkness Dynamite - Save The Cheerleader tab

Drop D

h -- Hammer
/ -- Vibrato


first part (x2)
Guitars 1&2
E----------------------|
B----------------------|
G----------------------|
D--000-000--------0-h7-|
A--000-000----0-h8-----|
D--000-000-------------|

Second Part (x2)
Guitars 1&2
E----------------------|
B----------------------|
G----------------------|
D--000-000--------0-h8-|
A--000-000----0-h8-----|
D--000-000-------------|

Part 3

Guitar 1

E--------------------|
B--------------------|
G--5-----------------|
D---8-7-8--7-5-7-5-3-|
A--------------------|
D--------------------|

Guitar 2

E------------------------------|
B------------------------------|
G------------------------------|
D--8-8-8-8-8-8-8-8-8-8-8-8-8-8-|
A--8-8-8-8-8-8-8-8-8-8-8-8-8-8-|
D--8-8-8-8-8-8-8-8-8-8-8-8-8-8-|

Part 4

Guitar 1

E--5--------------------|
B---8-7-8-7-5-7-5-3-5-5-|
G-----------------------|
D-----------------------|
A-----------------------|
D-----------------------|


Guitar 2

E----------------------------------------|
B----------------------------------------|
G----------------------------------------|
D-7-7-7-7-7-7-7-7--10-10-10-10-10-10-10--|
A-7-7-7-7-7-7-7-7--10-10-10-10-10-10-10--|
D-7-7-7-7-7-7-7-7--10-10-10-10-10-10-10--|


http://www.myspace.com/darknessdynamitemusic
Tap to rate this tab
 
# A B C D E F G H I J K L M N O P Q R S T U V W X Y Z