Song name
# A B C D E F G H I J K L M N O P Q R S T U V W X Y Z

Darkness - Girlfriend tab

this is an easy song to learn so i'm just doing it for the lazy people who
don't want to have to do this themselves.happy guitar playing everyone! 
P.S The darkness are the best rock band in history.

intro

E|----------------------------------------------------|
B|----------------------------------------------------|
G|----------------------------------------------------| x2
D|----------------------------------------------------|
A|-10----12----10--10--12----10--10--12--10----10--12-|
D|-10----10----10--10--10-10-10--10--10--10----10--10-|

E|----------------------------------------------------|
B|----------------------------------------------------|
G|----------------------------------------------------|
D|----------------------------------------------------|
A|-10----12----10--10--12--------------10----10--12---|
D|-10----10----10--10--10--5--7--5--7--10----10--10---|

E|----------------------------------------------------|
B|----------------------------------------------------|
G|----------------------------------------------------|
D|----------------------------------------------------|
A|-10--10----12----10--10--12----12----15----15--15---|
D|-10--10----10----10--10--10----12----15----15--15---|

verse

E|----------------------------------------------------|
B|----------------------------------------------------|
G|----------------------------------------------------|
D|----------------------------------------------------|
A|-10----12----10--10--12--------------10----10--12---|
D|-10----10----10--10--10--5--7--5--7--10----10--10---|
  giiiiiiirrrrrrrrlllll    I know i've got a funny way

E|----------------------------------------------------|
B|----------------------------------------------------|
G|----------------------------------------------------|
D|----------------------------------------------------|
A|-10--10----12----10--10--12----12----15----15--15---|
D|-10--10----10----10--10--10----12----15----15--15---|
                              of showing it

E|----------------------------------------------------|
B|----------------------------------------------------|
G|----------------------------------------------------|
D|----------------------------------------------------|
A|-10----12----10--10--12--------------10----10--12---|
D|-10----10----10--10--10--5--7--5--7--10----10--10---|
   yeeeeeeeeeeeesssssss    I thought our love was...

E|----------------------------------------------------|
B|----------------------------------------------------|
G|----------------------------------------------------|
D|----------------------------------------------------|
A|-10--10----12----10--10--12----12----15----15--15---|
D|-10--10----10----10--10--10----12----15----15--15---|
                              and blowing it

pre chorus

E|------------------------------------------|
B|------------------------------------------|
G|------------------------------------------|
D|-3--3--3----3--3--3----5--5--5--7----7--7-| x3
A|-3--3--3----3--3--3----5--5--5--7----7--7-|
D|-3--3--3----3--3--3----5--5--5--7----7--7-|
      was  never  on  my  agenda...ETC.

E|---------------------------------|
B|---------------------------------|
G|---------------------------------|
D|-5-5-5-5-5-5-5-5-5-5-5-5-5-5-5-5-|
A|-5-5-5-5-5-5-5-5-5-5-5-5-5-5-5-5-|
D|-5-5-5-5-5-5-5-5-5-5-5-5-5-5-5-5-|
 i've just got to tell her yeah!!

chorus

E|-----------------------------------|
B|-----------------------------------|
G|-----------------------------------|
D|-10----7---7---5----5--5--5--3---3-| x3
A|-10----7---7---5----5--5--5--3---3-|
D|-10----7---7---5----5--5--5--3---3-|
girlfriend i love you, i love you i love you so much!

E|---------------------------------|
B|---------------------------------|
G|---------------------------------|
D|-5-5-5-5-5-5-5-5-5-5-5-5-5-5-5-5-|
A|-5-5-5-5-5-5-5-5-5-5-5-5-5-5-5-5-|
D|-5-5-5-5-5-5-5-5-5-5-5-5-5-5-5-5-|
so much, so muuuuuuuuuuuccccccccccchhhhhh!!!

that's basically it.Just repeat this again, then there's a synthesiser
solo (the best part)which is followed by to choruses.
good luck! This is a fun and easy song to play, i just hope it turns out
right when i submit it. Fingers crossed!!

order-
intro
verse
pre chorus                
chorus               
verse
pre chorus
chorus
synth solo-ROCK!!
chorus-x2


listen to the song to get the timing right
Tap to rate this tab
# A B C D E F G H I J K L M N O P Q R S T U V W X Y Z