Song name
# A B C D E F G H I J K L M N O P Q R S T U V W X Y Z

Darkness - Out Of My Hands tab

	          Out of my hands- The Darkness                       
Tabbed by:Justin Hawkins

This intro is very easy
The very beginning is harder than the rest but you dont really have to play it
Tuning:Eadgbe
        Play this through the intro
e|-----12---------------------------|
B|-----12---------------------------|
G|-----------13----14----13---------|
D|-----------14----------14---------|
A|----------------------------------|
E|----------------------------------|
           P.M.-->
e|------------------------------------------------------------------------|
B|------------------------------------------------------------------------|
G|------------------------------------------------------------------------|
D|-----------------------7----7----7----7-----0----0----0-----------------|
A|--------7----7----7----5----5----4----4-----2----2----2---4----4----4---|
E|--------5----5----5---------------------------------------2----2----2---|

e|-------------------|
B|-------------------|
G|-------------------|
D|-------------------|
A|--------------7----|
E|---------4----5----|
Tap to rate this tab
# A B C D E F G H I J K L M N O P Q R S T U V W X Y Z