Song name
# A B C D E F G H I J K L M N O P Q R S T U V W X Y Z

Darkness - Christmas Time tab

Intro
G|---------------------------------|
D|---------------------------------|
A|--12-11-9----12------------9-11--|
E|----------10----10-12---12-------|

G|------------------------------------|
D|------------------------------------|
A|--12-11-9----12------------9-11-12--|
E|----------10----10-12---12----------|
Tap to rate this tab
# A B C D E F G H I J K L M N O P Q R S T U V W X Y Z