Song name
# A B C D E F G H I J K L M N O P Q R S T U V W X Y Z

Darkness - Holding My Own tab

HOLDING MY OWN -The Darkness
Acoustic version* by sinForge xJp
Standard tuning, Capo 2
This is NOT based on any performances/recordings!!



VERSE(s)
   C..        (add9)       C/B..      (add9)       Am..       (add9)  
e|-------------------------------------------------------------------------|-
B|-------1-----3-----1-----------1-----3-----1-----------1-----3-----1-----|-
G|----0-----0-----------0-----0-----0-----------0-----0-----0-----------0--|-
D|-------------------------------------------------------------------------|-
A|-3-------------(3)-------2-------------(2)-------0-------------(0)-------|-
E|-------------------------------------------------------------------------|-  

   F..           (M7)
e|----------------0--------|- 1 Baby everything is falling into place, My life is so exciting
B|-------1-----3-----3--1--|-   Now I've got my space, Like a splash of water on my face
G|-------------------------|- 2 Lately I'm doing what I can to pleasure me, I'm finding time
D|----3--------------------|-   To focus on my fantasies, I'm satisfied in my own company
A|-3--------3--------------|- 3 Lady, all we seem to do is talk about, oh we take apart and 
E|-------------------------|-   Analyze our ins and outs, honey I would rather do without, oh
       



PreCHORUS(s)  
   G..        (add11)      G..        (add11)      Am..       (add9)  
e|-------------------------------------------------------------------------|-
B|----------0--1-----0--------------0--1--0--------------------3-----------|-
G|-------0--------------0--------0-----------0-----------0--2-----0--2-----|-
D|----------------------------0-----------------0--------------------------|-
A|-------------------------------------------------0--3----------------(0)-|-
E|-3-----------------------3-----------------------------------------------|- 

   FM7
e|-0~---------------------|- 1 I don't need your permission
B|-1~---------------------|-   To take this matter in my own two hands
G|-2~---------------------|- 2 No one to answer to
D|-3~---------------------|-   I won't spend another lifetime begging you
A|-3~---------------------|- 3 There's a spring in my stride
E|-1~---------------------|-   There's a twinkle in my dying eyes




CHORUS(s) 
   Am   G      C    (C)   G..        (add11)      C      (C)     G   (G)     F
e|-0-----------0-----0----------------------------0-------0---------------------|-
B|-1----0------1-----1-------------0--1--0--------1-------1------0----0------1~-|-
G|-2----0------0-----0----------0-----------0-----0-------0------0----0------2~-|-
D|-2----0------2-----2-------0-----------------0--2-------2------0----0------3~-|-
A|-0-----------3-----3----------------------------3-------3------------------3~-|-
E|------3-----------------3--------------------------------------3----3------1~-|-
   I'm  hold - ing   my   own..                   Give or take a tear or two yeah
   I'm  hold - ing   my   own..                No matter  what I put  myself through

Tap to rate this tab
 
# A B C D E F G H I J K L M N O P Q R S T U V W X Y Z