Darkness - I Believe In A Thing Called Love tab

I Believe In A Thing Called Love by The Darkness

Tuning: standard EADGBe

This song is written in a major key,thus the reason for the major chords in the verses


INTRO:
     bar the notes with 1st or 3rd finger
e|---------------------------------------------|
B|-------2---4-4---4------4-4--2-2-------------|
G|-------2---4-4---4------4-4--2-2-------------|  x2
D|--4----2---4-4---4-2-2--4-4--2-2-------------|
A|--4----0---2-2---2-2-2--2-2--0-0----0-2-4----|
E|--2----------------0-0-----------4~-------0--|

VERSE:

e|---------------------------------------------|
B|-------2---4-4---4------4-4--2-2-------------|
G|-------2---4-4---4------4-4--2-2-------------|  
D|--4----2---4-4---4-2-2--4-4--2-2-------------|
A|--4----0---2-2---2-2-2--2-2--0-0----0-2-4----|
E|--2----------------0-0-----------4~-------0--|

e|---------------------------------------------|
B|-------2---4-4---4------4-4--2-2-------------|
G|-------2---4-4---4------4-4--2-2-------------|  
D|--4----2---4-4---4-2-2--4-4--2-2-------------|
A|--4----0---2-2---2-2-2--2-2--0-0----0--------|
E|--2----------------0-0-----------4~---4-2-0--|

PRE-CHORUS
          pm+++++++++++++++++
e|-0---------------------------|
B|-0---------------------------|
G|-1---------------------------|  x2
D|-2---4--4-4-4-4-4-4-4-4-4-4--|
A|-2---4--4-4-4-4-4-4-4-4-4-4--|
E|-0---2--2-2-2-2-2-2-2-2-2-2--|

e|-0--------0------------------------------------|
B|-0--------0--2---------------------------------|
G|-1-----------2--3--4--4-4-4-4-4-4-4-4-4-4-4-4--|
D|-2---4--4----2--3--4--4-4-4-4-4-4-4-4-4-4-4-4--|
A|-2---4--4----0--1--2--2-2-2-2-2-2-2-2-2-2-2-2--|
E|-0---2--2-------1------------------------------|

CHORUS

e|------------------------------|
B|------------------------------|
G|------------------------------|  x3
D|--------2-------------4--6-4--|
A|--2-----0------4------2--4-2--|
E|--0-2-4----4-0-2--4-0---------|

e|--------------------------|
B|--------------------------|
G|--6------4--6--7-7---7-7--|
D|--6------4--6--7-7---7-7--|
A|--4------2--4--5-5---5-5--|
E|--4------2--4--5-5---5-5--|

SOLO ONE
e|----------------------------------16--b-r---------------------------------------|
B|--17-------17----17------------------------17-----------------------------------|
G|--16b(18)----(18)--(18)--r16~~----------------16---13--b-r----------------------|
D|------------------------------------------------------------14~-\\----15b~~~~---|
A|--------------------------------------------------------------------------------|
E|--------------------------------------------------------------------------------|
          hold the bend

VERSE:
          
e|---------------------------------------------|
B|-------2---4-4---4------4-4--2-2-------------|
G|-------2---4-4---4------4-4--2-2-------------|  
D|--4----2---4-4---4-2-2--4-4--2-2-------------|
A|--4----0---2-2---2-2-2--2-2--0-0----0-2-4----|
E|--2----------------0-0-----------4~-------0--|

e|---------------------------------------------|
B|-------2---4-4---4------4-4--2-2-------------|
G|-------2---4-4---4------4-4--2-2-------------|  
D|--4----2---4-4---4-2-2--4-4--2-2-------------|
A|--4----0---2-2---2-2-2--2-2--0-0----0--------|
E|--2----------------0-0-----------4~---4-2-0--|

PRE-CHORUS
          pm+++++++++++++++++
e|-0---------------------------|
B|-0---------------------------|
G|-1---------------------------|  x2
D|-2---4--4-4-4-4-4-4-4-4-4-4--|
A|-2---4--4-4-4-4-4-4-4-4-4-4--|
E|-0---2--2-2-2-2-2-2-2-2-2-2--|

e|-0--------0------------------------------------|
B|-0--------0--2---------------------------------|
G|-1-----------2--3--4--4-4-4-4-4-4-4-4-4-4-4-4--|
D|-2---4--4----2--3--4--4-4-4-4-4-4-4-4-4-4-4-4--|
A|-2---4--4----0--1--2--2-2-2-2-2-2-2-2-2-2-2-2--|
E|-0---2--2-------1------------------------------|

CHORUS

e|------------------------------|
B|------------------------------|
G|------------------------------|  x3
D|--------2-------------4--6-4--|
A|--2-----0------4------2--4-2--|
E|--0-2-4----4-0-2--4-0---------|

e|--------------------------|
B|--------------------------|
G|--6------4--6--7-7---7-7--|
D|--6------4--6--7-7---7-7--|
A|--4------2--4--5-5---5-5--|
E|--4------2--4--5-5---5-5--|

SOLO TWO

e|-0-0-0-0-0-0-0-0-0-0--------7---7------------------0-----------------|
B|-5-5-5-5-5-5-5-5-5-5--7b(9)--(9)--(9)-r7--5-7-5--4---2-0-------------|
G|----------------------------------------------------------1-2-4-4--4-|
D|---------------------------------------------------------------------|
A|---------------------------------------------------------------------|
E|---------------------------------------------------------------------|
                         hold the bend

e|-------------------------------------0--------------------|
B|----------------------------------------0-----------------|
G|-------------------------------------------1---1--2--4-4--|
D|-4h6--6--6-4-2---2h4--4--4-6-4-2-2(let ring)--------------|
A|---------------4------------------------------------------|
E|----------------------------------------------------------|

e|-------------------------9-------9-----9------9------------------------------------------|
B|--10---10-------------9----9--9----9-----12p9----12p9-----9------------------------------|
G|--12b--12b-r--b-r----11b-----11b-----------------------11---11p9-----9-9-9-11-9-----9----|
D|-----------------------------------------------------------------11--------------11---11-|
A|-----------------------------------------------------------------------------------------|
E|-----------------------------------------------------------------------------------------|

e|----------------------------------------------------------------------|
B|-------9----9-9----9------9------9-9-9-9-9--9-9-9-9-9--9-9-9--10--12--|
G|-------9----9-9----9------9------9-9-9-9-9--9-9-9-9-9--9-9-9--11--13--|
D|-------9----9-9----9--11--9--11---------------------------------------|
A|--9h11---11-----11----------------------------------------------------|
E|----------------------------------------------------------------------|

PRE-CHORUS
          pm+++++++++++++++++
e|-0---------------------------|
B|-0---------------------------|
G|-1---------------------------|  x2
D|-2---4--4-4-4-4-4-4-4-4-4-4--|
A|-2---4--4-4-4-4-4-4-4-4-4-4--|
E|-0---2--2-2-2-2-2-2-2-2-2-2--|

e|-0--------0------------------------------------|
B|-0--------0--2---------------------------------|
G|-1-----------2--3--4--4-4-4-4-4-4-4-4-4-4-4-4--|
D|-2---4--4----2--3--4--4-4-4-4-4-4-4-4-4-4-4-4--|
A|-2---4--4----0--1--2--2-2-2-2-2-2-2-2-2-2-2-2--|
E|-0---2--2-------1------------------------------|

CHORUS

keyboard chorus 

then:
e|-------------------|
B|-------------------|
G|--6------4--6--7-7-|
D|--6------4--6--7-7-|
A|--4------2--4--5-5-|
E|--4------2--4--5-5-|

SOLO THREE

e|------------12---------------------------------------------------------------------|
B|-15b-r--b~----15p12----12----------------------------------------------------------|
G|--------------------15----15p14p12-14b-12~----------12hb---------12+hb--------12hb-|
D|--------------------------------------------14p12-14-----14p12-14-----14p12-14-----|
A|-----------------------------------------------------------------------------------|
E|-----------------------------------------------------------------------------------|

e|--------------------------------------4-0-0-5-0-0-7-0-0-9-0-0-7-0-9-0--|
B|-----------------------------------------------------------------------|
G|-----------------------------------------------------------------------|
D|-14-12-----------------------------------------------------------------|
A|-------14-13-12--14--10hb----------------------------------------------|
E|--------------------------12p10-10-------------------------------------|

e|---11-0-9-0-11-0-12-0-14-0-12-0-14-0-16-0-17-0-0-16-0-0-19-0-0-16-0-0-17-0-0-18-0-0-22b~~~----|
B|----------------------------------------------------------------------------------------------|
G|----------------------------------------------------------------------------------------------|
D|----------------------------------------------------------------------------------------------|
A|----------------------------------------------------------------------------------------------|
E|----------------------------------------------------------------------------------------------|

CHORUS/OUTRO (NO VOCALS)

e|------------------------------|
B|------------------------------|
G|------------------------------|  x3
D|--------2-------------4--6-4--|
A|--2-----0------4------2--4-2--|
E|--0-2-4----4-0-2--4-0---------|

e|-------------------------------0---|
B|-------------------------------0---|
G|-------------------------------1---|  
D|--------2-------------4--6-4---2---|
A|--2-----0------4------2--4-2---2---|
E|--0-2-4----4-0-2--4-0----------0---|

OUTRO SOLO

e|-------------------------------------------------------------|
B|--15b--(17)--r-(15)p12h15-11h14p11-10h13p10-9h12p9-8h11p8\7--|
G|-------------------------------------------------------------|
D|-------------------------------------------------------------|
A|-------------------------------------------------------------|
E|-------------------------------------------------------------|

e|--------------------------------------0------||
B|--------19+--21+---17+~~~-------------0------||
G|--------------------------------------1------||
D|--x\\-----------------------x\\x//----2------||
A|--x\\-----------------------x\\x//----2------||
E|--x\\-----------------------x\\x//----0------||


| /  slide up
| \  slide down
| h  hammer-on
| p  pull-off
| ~  vibrato
| +  pinch harmonic
| x  Pick Scrape
|pm+ Palm Mute
| b  Full Bend
| hb Half Bend
|(18)Note to Bend to
| r Release Bend
Tap to rate this tab
 
# A B C D E F G H I J K L M N O P Q R S T U V W X Y Z