Song name
# A B C D E F G H I J K L M N O P Q R S T U V W X Y Z

Darkness - Growing On Me tab

The Darkness
Growing on Me

     Tabbed by:
          LS311                    KEY:
                                      . = dont let note ring out   h = hammeron
                                      v = vibrato                  p = pulloff
TUNEING: Dropped D                    \ = slide down               ^ = bend
     DADGBE

here is the solo that everybody has trouble tabbing out. enjoy.

SOLO2
E|------------------------------------------------------------------------------|
B|-----------------3.-3-2-3---3^3^3^-3^3^3^-5^5^5^-7p5-3h5p3-2h3p2--------------|
G|--------------------------2---------------------------------------------------|
D|---4.-2-0-2-4-4v------------------------------------------------5h7p5-4h5p4---|
A|5v--------------------------------------------------------------------------5-|
D|------------------------------------------------------------------------------|

 -------------------------------------------------------------17--17--17--17--17--17--17--17--|
 ----19-17-15-17-19-19v--15.-15---------17v17v17v-17-17-15-18^-18^-18^-18^-18^-18^-18^-18^----|
 19v\---------------------------18-19-14------------------------------------------------------|
 ---------------------------------------------------------------------------------------------|
 ---------------------------------------------------------------------------------------------|
 ---------------------------------------------------------------------------------------------|

 --0--0--0-------------------------------------------------------------------------------------------||
 15-15-15-15h17p15h19-15h17p15h19-15h17p15h19-15h17p15h19\10121012101210-----------------------------||
 ----------------------------------------------------------------------------------------------------||
 -----------------------------------------------------------------------16v-16-17-16v-16-14p12h14-12v||
 ----------------------------------------------------------------------------------------------------||
 ----------------------------------------------------------------------------------------------------||

Thats the jist of this solo, he would improv alot durring the end, this is the album version. have fun!
Tap to rate this tab
# A B C D E F G H I J K L M N O P Q R S T U V W X Y Z