Song name
# A B C D E F G H I J K L M N O P Q R S T U V W X Y Z

Darkness - Nothings Gonna Stop Us tab

Howdy,

This is a funking great track, can't wait for the album, tabbed is my stab at the rhythm 
guitar. If anyone can work the solos out in the next week I will love you forever

Be gentle, first ever documented tab...

Anyway:

Standard tuning

Intro:

-----------------------------------------------------|
-----------------------------------------------------|
-4-4-2-2-2-2-4-4-2-2-2-2-4-4-EPIC PICKSCRAPE---------|
-0-0-0-0-0-0-0-0-0-0-0-0-0-0-------------------------|
-----------------------------------------------------|
-----------------------------------------------------|

Verse:
-------------------------------------------------------------------|
-------------------------------------------------------------------|
-----------------4-4-1-1-4-4-1-1------------------4-4-1-1----------|
---------6-6-6-6-6-6-2-2-6-6-2-2----------6-6-6-6-6-6-2-2-44-464---|
-6-6-6-6-4-4-4-4------------------6-6-6-6-4-4-4-4----------------7-|
-4-4-4-4--------------------------4-4-4-4--------------------------|


Bridge:
-----------------|
-----------------|
-1---2---5---6---|
-2---4---6---7---|  x3
-2---4---6---7---|
-0---2---4---5---|


Chorus:
-------------------------------|
-------------------------------|
-4-4-4-4-4-4-4-4-2-2-2-2-------|
-4-4-4-4-4-4-4-4-2-2-2-2-4-4---|  x3
-2-2-2-2-2-2-2-2-0-0-0-0-4-4---|
-------------------------2-2---|

The strumming pattern here is a bit tricky at first, to get it I count it out in my head as

1,2,3,4 1,2,3,4, 1,2,3,4 1,2
So
1    2    3    4
Nothing's gonna stop us
1    2    3    4
Nothing's gonna stop us
1    2    3    4
Nothing's gonna stop us now
1    2

1    2    3    4
Nothing's gonna stop us
1    2    3    4
Nothing's gonna stop us
1    2    3    4
Nothing's gonna stop us now
1    2

Don't stop a rockin!
Tap to rate this tab
 
# A B C D E F G H I J K L M N O P Q R S T U V W X Y Z