Song name
# A B C D E F G H I J K L M N O P Q R S T U V W X Y Z

Darkness - With A Woman tab

Tabbed by Brendan Johnson


Intro

Guitar 1
E-----------------------------|
B-----------------------------|
G-----------------------------|
D-----------------------------|
A---0----0-5-0-3-0------------|
E-----------------------------|

Guitar 2
E-----------|-------------|
B-----------|-------------|
G-----------|-------------|
D--5-6-7--7-|-5-6-7-5-6-7-|
A--5-6-7--7-|-5-6-7-5-6-7-|
E--3-4-5--5-|-3-4-5-3-4-5-|



E---------|-----------|-------------|-------------|
B---------|-----------|-------------|-------------|
G---------|-----------|-------------|-5-6-7--7777-|
D--5/7--7-|--5-6-7--7-|-5-6-7-5-6-7-|-5-6-7--7777-|
A--5/7--7-|--5-6-7--7-|-5-6-7-5-6-7-|-3-4-5--5555-|
E--3/5--5-|--3-4-5--5-|-3-4-5-3-4-5-|-------------|
Tap to rate this tab
# A B C D E F G H I J K L M N O P Q R S T U V W X Y Z