Song name
# A B C D E F G H I J K L M N O P Q R S T U V W X Y Z

Darkness - Living Each Day Blind tab

-----------------------------------------------------------------------------
                    Living Each Day Blind - The Darkness (Hot Cakes 2012)
-----------------------------------------------------------------------------
Standard Tuning (EADGBe)
Tabbed by Steve


Intro:
      F#                   C#m                       E
E||-------------------------------|------------------------------|
B||--/11~------11--12--14---------|------------------------------|
G||------------------------13~----|--13b--13--11~----13----11----|
D||-------------------------------|------------------------------|
A||-------------------------------|------------------------------|
E||-------------------------------|------------------------------|

             A#         Bm           F# 
              PM   PM   PM   PM       PM 
----------------------------------|----------------------|
----------------------------------|------------------9/--|
----------------------------------|----------------------|
--12----11----(8)--(8)--(9)--(9)--|--(11)----------------|
--------------(8)--(8)--(9)--(9)--|--(11)----------------|
--------------(6)--(6)--(7)--(7)--|---(9)----------------|


 F#          C#m                           F# 
-----------------------|--11-------11----------------|
--\11~------11--12--14-|--14b------14brb----11~------|
-----------------------|-----------------------------|
-----------------------|-----------------------------|
-----------------------|-----------------------------|
-----------------------|-----------------------------|

(Verse:)

F#                 C#m7 
In a dead end town.   Tied to apron strings

E                                         B (Riff)
All our friends have left, destined for better things

(Riff:)
E||--------------------------|-----------------------|
B||--4--4---5p--4------------|-----------------------|
G||--4--4---4---4------------|---------------11------|
D||--4--4---4---4------------|---------------11------|
A||--2--2---2---2------------|-2--2-/4-/6----9-------|
E||--------------------------|-----------------------|


F#                 C#m7
Nothing to do;    No education

E                             B (Riff)     
Can't afford a taxi to the station

         B     C#     F#      E 
It's the end     of   the     line

C#m
Got nowhere to go

          G#m     A#m      B     F#     E
And we've got     no   -   where to    be

          Eb                        E
So what's stopping you from leaving here with me?


(Chorus:)
  B                   E
------------------------------------------|
-----------/12---/12-----------/12---/12--|
-----------/11---/11--9--9-----/11---/11--|
--9--9----------------9--9----------------|
--9--9----------------7--7----------------|
--7--7------------------------------------|
  F#                   E     
--------------------------------------------|
-------------/12---/12-----------/12---/12--|
--11--11-----/11---/11--9--9-----/11---/11--|
--11--11----------------9--9----------------|
---9---9----------------7--7----------------|
--------------------------------------------|

B                                 E
There's nothing left for us here, let's face it

F#                                E            
We're losing sight of our dream, let's chase it

B             E              F#  
Leave our mediocre lives behind

E
Living each day blind

(Riff2)
B                         E
I'm sick of struggling, just to get through it

F#                           E         
The time for talking is over, let's do it

B               E                   F#
Nothing you can say will change my mind

E                        
Living each day blind

C#m7                 E       A#m, B, C#, F#, E
     Living each day blind

(Riff2:)
--14---------------14---------------|--14---------------14---------|
------12h--14--12------12h--14--12--|------12h--14--12-------------|
------------------------------------|-------------------11~--------|
------------------------------------|------------------------------|
------------------------------------|------------------------------|
------------------------------------|------------------------------|

 (Solo:)                
--12---------14--------|------------------------|---------------------||
-----------------------|------------------------|---------------------||
---9~--------11--------|--11------------9--11b--|--11~----------------||
-----------------------|--------11--13----------|---------------------||
-----------------------|------------------------|---------------------||
-----------------------|------------------------|---------------------||

(Verse2)

F#               C#m7
Kettle is on.    Water is boiling

E                            B (Riff)                              
One more cup of tea and I'm out of here

F#                 C#m7
Shut the door.    Keys in the letterbox

E                     B (Riff)                              
Pause to wipe away a silent tear

B        C#        F#       E
It's the end     of   the  line

C#m
Got nowhere to go

          G#m     A#m      B     F#     E
And we've got     no   -   where to    be

          Eb                        E
So what's stopping you from leaving here with me?


(Chorus)


(Bridge:)

F# (E/F# , E/F# Slide from E to F#)

C#m
For once in my life

E                   Bm    F#        A#m, B, C#            
You don't get to touch me anymore

F# (E/F# , E/F#)  C#m
And I'm free. For once in my life

E                     Bm      F#
You don't get to touch me anymore

Bm     C#   F#
Listen to me... 

(Solo:)                      PM  PM       PH 
E||-----------------------|---------------------------------|
B||--11h12~----14p-12-----|---------------------------------|
G||-----------------------|-------------<>14br-------13~----|
D||-----------------------|--(14)-(14)----------------------|
A||-----------------------|---------------------------------|
E||-----------------------|---------------------------------|

     PH                                               
-----------------------------------|-----------------|
-----------------------------------|-----------------|
--<>11b--------11pbr--9~--/8--/6---|--/4~--6p--4-----|
-----------------------------------|-------------6~--|
-----------------------------------|-----------------|
-----------------------------------|-----------------|
 
------11------11----/14~----|----------------------------|
----------------------------|--14brb--------12-----------|
--11------11----------------|---------------------13~----|
----------------------------|----------------------------|
----------------------------|----------------------------|
----------------------------|----------------------------|

      
------------------------------------------|------------------------------|
--17~----16~----16h--17p--16--------------|-----------------------19-----|
------------------------------18--16--15--|-----------------------18b----|
------------------------------------------|--18~----20~----21~-----------|
------------------------------------------|------------------------------|
------------------------------------------|------------------------------|
       
-------------------|---------21---------------------|----------------------|
--19---------------|--21b----------21pbr----19--19--|--17--------16~-------|
--18~--------------|--------------------------------|----------------------|
-------------------|--------------------------------|----------------------|
-------------------|--------------------------------|----------------------|
-------------------|--------------------------------|----------------------|

(Chorus:)

B                          
There's nothing left for us here
E
Let's face it
F#
We're losing sight of our dream
E
Let's chase it

--------------------------|----------------------------------|
--12----------------------|----------------------------------|
--------13----11----------|----------13--11------------------|
--------------------13----|--11--13----------13--11--13--11--|
--------------------------|----------------------------------|
--------------------------|----------------------------------|
                                        Bm
------------------------------|------------------||
------------------------------|------------------||
------------------------------|------------------||
--11--9--11--9----------------|---------9--------||
----------------11--9--11--9--|---------9--------||
------------------------------|--11--9--7--------||

(Chorus)

(Outro Solo:)

E||--14--------------14--------------|
B||------12--14--12------12--14--12--|
G||----------------------------------|
D||----------------------------------|
A||----------------------------------|
E||----------------------------------|

--14--------------14p-12---------------------|
------12--14--12---------14p-12--------------|
--------------------------------13p-11----11-|
---------------------------------------14----|
---------------------------------------------|
---------------------------------------------|
  
-------14--------------14---------|-------------------------|
--14b------14pbr--14b------14pbr--|--14--12h--14p--12-------|
----------------------------------|--------------------13~--|
----------------------------------|-------------------------|
----------------------------------|-------------------------|
----------------------------------|-------------------------|
  
---------------------11--12--13--14---------|-----------------|
-----------12h--14b------------------14pbr--|--12--12s~--\\---|
--11h--13-----------------------------------|-----------------|
--------------------------------------------|-----------------|
--------------------------------------------|-----------------|
--------------------------------------------|-----------------|

--------------14----14---14---------|-------------------------------------|
----------12--14b~--14b--14pbr--14--|--14~--14p--12-----------------------|
----//13----------------------------|----------------13p--11s--9--11p--9--|
------------------------------------|-------------------------------------|
------------------------------------|-------------------------------------|
------------------------------------|-------------------------------------|

              W   W                                       
----------|-----------------------|-----------------------|
----------|--12~--14~--16~--19pb--|--16h--19p--16---------|
----------|-----------------------|----------------18~----|
--11p--9--|-----------------------|-----------------------|
----------|-----------------------|-----------------------|
----------|-----------------------|-----------------------|
 
------------------------------------|--------------------------19-------19--|
------------------16--17--18--19br--|--19br----19~--------/21------/21------|
--16h--18--18b----------------------|---------------------------------------|
------------------------------------|---------------------------------------|
------------------------------------|---------------------------------------|
------------------------------------|---------------------------------------|

--21-21b--21pbr--21~--|-----------19--21brb--21brb--21pbr--21--19--|
----------------------|--19h--21-----------------------------------|
----------------------|--------------------------------------------|
----------------------|--------------------------------------------|
----------------------|--------------------------------------------|
----------------------|--------------------------------------------|
                   
--18~----------------||
---------------------||
---------------------||
---------------------||
---------------------||
---------------------||
Tap to rate this tab
# A B C D E F G H I J K L M N O P Q R S T U V W X Y Z