Song name
# A B C D E F G H I J K L M N O P Q R S T U V W X Y Z

Darkness - With A Woman tab

-----------------------------------------------------------------
WITH A WOMAN (INTRO) - The Darkness
-----------------------------------------------------------------
Tabbed by: c0nk3r
Tuning: Standard

e|------------------|-------------|-------|-------------------------|
B|------------------|-------------|-------|-------------------------|
G|------5h7---5-----|-------------|-------|-------------------------|
D|------5-----5-----|-x4 and then-|-------|-then repeat many times--|
A|------------------|-------------|-------|-------------------------|
E|--5-5-----5---5---|-------------|-3-4-5-|-------------------------|

Like many, many times.


e|---------------------------------------------------------------|
B|---------------------------------------------------------------|
G|------5h7---5------------5h7---5-------------------------------|
D|------5-----5------------5-----5-------------------------------|
A|---------------------------------------------------------------|
E|--5-5-----5------3-4-5-5-----5---------------------------------|

e|---------------------------------------------------------------|
B|---------------------------8-7---------------------------------|
G|---------------------------------------------------------------|
D|-------------------5-6-7-7-7-7---------------------------------|
A|-5-6-7--5-6-7------3-4-5-5-5-5---------------------------------|
E|-3-4-5--3-4-5--------------------------------------------------|

And repeat. Many times.



| /  slide up
| \  slide down
| h  hammer-on
| p  pull-off
| ~  vibrato
| +  harmonic
| x  Mute note
Tap to rate this tab
 
# A B C D E F G H I J K L M N O P Q R S T U V W X Y Z