Song name
# A B C D E F G H I J K L M N O P Q R S T U V W X Y Z

Darkness - With A Woman tab

-----------------------------------------------------------------
WITH A WOMAN (SOLO) - The Darkness
-----------------------------------------------------------------
Tabbed by: c0nk3r
Tuning: Standard

e|---------------------------------------------------------------|
B|---------------------------------------------------------------|
G|------------------12-14-14/16----------------------------------|
D|--/11-13-13-9-----------------12---12-12-14-11----9b11b9p7-----|
A|---------------10------------------------------12--------------|
E|---------------------------------------------------------------|

             PM
e|---------------------------------------------------------------|
B|---------------------------------------------------------------|
G|---------------------------------------------------------------|
D|--------------------9-11-12-14-16b17b16------------------------|
A|--------12---12------------------------------------------------|
E|--8b9p0----9---------------------------------------------------|

e|---------------------------------------------------------------|
B|----------------------------------------------15----15---------|
G|---16b18-16b18-16b18b16p14----14h16-----14-16----16------------|
D|---------------------------16----------------------------------|
A|---------------------------------------------------------------|
E|---------------------------------------------------------------|

e|--------17-------17-------17-----------------------------------|
B|--17b19----17b19----17b19------19b17-15-17-17b19-15------------|
G|---------------------------------------------------------------|
D|---------------------------------------------------------------|
A|---------------------------------------------------------------|
E|---------------------------------------------------------------|

e|-----------17-19-19/21-21--------------------------------------|
B|--15-14-15----------------17-----------------------------------|
G|---------------------------------------------------------------|
D|---------------------------------------------------------------|
A|---------------------------------------------------------------|
E|---------------------------------------------------------------|

e|---------------------------------------------------------------|
B|-19b20-19-19b20-19-17-15----------------17---------------------|
G|-------------------------14h16-14-16b18----18b16p14----14h16p14|
D|----------------------------------------------------16---------|
A|---------------------------------------------------------------|
E|---------------------------------------------------------------|

e|-----------------17-19b21-19-----------------------------------|
B|--/14-17---17/19-----------------------------------------------|
G|---------------------------------------------------------------|
D|---------------------------------------------------------------|
A|---------------------------------------------------------------|
E|---------------------------------------------------------------|

| /  slide up
| \  slide down
| h  hammer-on
| p  pull-off
| ~  vibrato
| +  harmonic
| x  Mute note
Tap to rate this tab
 
# A B C D E F G H I J K L M N O P Q R S T U V W X Y Z