Song name
# A B C D E F G H I J K L M N O P Q R S T U V W X Y Z

Darkness - Curse Of The Tollund Man tab

|----------------------------------------------|       ~ means hold note
|----------------------------------------------|
|-------------0--------------------------------|
|---------2-3---3-2---2~~----------------------|
|-0-0-0-3-----------3--------------------------|
|----------------------------------------------|

|----------------------------------------------|
|-----------5-6\8-6-5--------------------------|
|---------5-----------5\9~~--------------------|
|---7-7-7--------------------------------------|
|----------------------------------------------|
|----------------------------------------------|

I may be 15, but I know this tab is 100% right. Rate if ya want to. 
                        The Darkness- Men What Do Rock, Baby...
P.S: Apologies it's only an intro.
Tap to rate this tab
# A B C D E F G H I J K L M N O P Q R S T U V W X Y Z