Song name
# A B C D E F G H I J K L M N O P Q R S T U V W X Y Z

Darkness - Makin Out tab

Tabbed by:Colin
Email:Colin383@msn.com

Tuning:Standard
  Guitar 1                  Intro
  p    p    p   p   p   p   p   p   p    p    p   p   p   p   p   p   x4
e|-------------------------------------------------------------------------|
B|10-0-10-0-9-0-9-0-7-0-7-0-9-0-9-0-10-0-10-0-9-0-9-0-7-0-7-0-9-0-9-0------|
G|-------------------------------------------------------------------------|
D|-------------------------------------------------------------------------|
A|-------------------------------------------------------------------------|
E|-------------------------------------------------------------------------|
  Guitar 2   x4
e|-------------|
B|-------------|
G|4~------4----|
D|4~------4-2--|
A|2~------0-2--|
E|----------0--|  

  Guitar 1                         Verse/Intro                   x2
e|-------------------------------------------------------------------------|
B|7-7-----7---9-10-9-9-10-9-9-7-7------------------------------------------|
G|----7-8-------------------------7-8--------------------------------------|
D|------------------------------------9~-----------------------------------|
A|-------------------------------------------------------------------------|
E|-----------------------------------------7-10-7-10-7\--------------------|

  Guitar 2                                                       x2
e|-------------------------------------------------------------------------|
B|----------3-----3-----------------3---3----------------------------------|
G|4-----4-4-2-4-4-2-4-4-4-4-----4-4-2-4-2-4--------------------------------|
D|4-----4-4-0-4-4-0-4-4-4-4-----4-4-0-4-0-4--------------------------------|
A|2-----2-2---2-2---2-2-2-2-----2-2---2---2--------------------------------|
E|--0-2---------------------0-2--------------------------------------------|

  Guitar 2                        Verse                          x2
e|-------------------------------------------------------------------------|
B|----------3-----3-----------------3---3----------------------------------|
G|4-----4-4-2-4-4-2-4-4-4-4-----4-4-2-4-2-4--------------------------------|
D|4-----4-4-0-4-4-0-4-4-4-4-----4-4-0-4-0-4--------------------------------|
A|2-----2-2---2-2---2-2-2-2-----2-2---2---2--------------------------------|
E|--0-2---------------------0-2--------------------------------------------|

  Guitar 2                        Chorus
e|----------------------0-------------------0-------------------0----------|
B|----3-----3---3-------0-3-----3---3-------0-3-----3---3-------0-3--------|
G|----2-----2---2---------2-----2---2---------2-----2---2---------2--------|
D|2-2-0-2-2-0-2-0-2-------0-2-2-0-2-0-2-------0-2-2-0-2-0-2-------0-2-2-5--|
A|2-2---2-2---2---0---------2-2---2---0---------2-2---2---0---------2-2-5--|
E|0-0---0-0---0-----3-0-----0-0---0-----3-0-----0-0---0-----3-0-----0-0-3--|

Order:
Intro
Intro/Verse
Verse
Chorus
                   I will finish tabbing this song some other time but in
                   the mean time i have to go.If you have any problems with
                   this tab just email me at colin383@msn.com!!! 
| /  slide up             
| \  slide down
| h  hammer-on
| p  pull-off
| ~  let ring
| +  harmonic
| x  Mute note
============================================================================
Tap to rate this tab
# A B C D E F G H I J K L M N O P Q R S T U V W X Y Z