Song name
# A B C D E F G H I J K L M N O P Q R S T U V W X Y Z

Darkness - Physical Sex tab

Don't Know why there is not a tab for this...Anywho

Just get some feedback to start off with

*Increase spead graduly*

Intro

1----------------------------------------------------------------------|
2-----------------------------------------------3----------------------|
3--2----2-2----2-----2-2----2----2-2-----2------2---2----2-2--------8--|
4--2----2-2----2-----2-2----2----2-2-----2------0---2----2-2--------8--|
5--3b-0-0-0----3b-0--0-0----3b-0-0-0-----0-3b-0-----3b-0-0-0--3b-0--6--|
6----------------------------------------------------------------------|

Verse

1-------------------------|
2-----------------------3-|
3--2--2----2--2---------2-|
4--2--2----2--2---------0-|
5--0--0----0--0--3b--0--0-|
6-------------------------|

Repeat over and over

Chorus

1-------------------------------|
2-------------------------------|
3---2----2---2-----5555-777-8---|
4---2----2---2--5--5555-777-8---|
5---0----0---0--3--3333-555-6---|
6-3----3----3---3---------------|

x4

Interlude

1---------------------|
2---------------------|
3----0---0---0---0----|
4---------------------|
5--4---3---2-----1----|
6---------------------|

Then after intro
Tap to rate this tab
# A B C D E F G H I J K L M N O P Q R S T U V W X Y Z