Song name
# A B C D E F G H I J K L M N O P Q R S T U V W X Y Z

Darkness - Wanker tab

WANKER
B-side to 'One Way Ticket'.

INTRO
guitar 1
e|--------------------------------------------------x----x------------|
B|--------------------------------------------------x----x------------|
G|-4------------------------------------------------2----1------------|
D|-4------------------------------------------------2----2------------|
A|-2------------------------------------------------0----2------------|
E|-------------------------------------------------------0------------|
guitar 2
e|--------------------------------------------------------------------|
B|-12--12------12--12--12-------12--12--12------12-----12-------------|
G|-13br11------11--13br11-------11--13br11------11--13b---13br-11-----|
D|--------11/12------------11/12-----------12/13----------------------|
A|--------------------------------------------------------------------|
E|--------------------------------------------------------------------|

guitar 1
e|--------------------------------------------------x----x------------|
B|--------------------------------------------------x----x------------|
G|-4-4--4-4-4--4-4-4-4------------------------------2----1------------|
D|-4-4--4-4-4--4-4-4-4------------------------------2----2------------|
A|-2-2--2-2-2--2-2-2-2------------------------------0----2------------|
E|-------------------------------------------------------0------------|
guitar 2
e|--------------------------------------------------------------------|
B|-12--12------12--12--12-------12--12--12------12-----12-------------|
G|-13br11------11--13br11-------11--13br11------11--13b---13br-11-----|
D|--------11/12------------11/12-----------12/13----------------------|
A|--------------------------------------------------------------------|
E|--------------------------------------------------------------------|

VERSE
e|-------------------------x---x-------------------|
B|-------------------------x---x-------------------|
G|-4-4--4-4-4--4-----------2---1-------------------|
D|-4-4--4-4-4--4----4-4-4--2---2-------------------|
A|-2-2--2-2-2--2----4-4-4--0---2-------------------|
E|----------------0-2-2-2------0-------------------| 2x


BRIDGE
e|----------------------------------------------x--------|
B|----2--------------------------2--------------x--------|
G|---------------2--------------------------2---1--------|
D|---4----4p0-------2-4/2------4-----4p0--------2--------|
A|-2-----------0----2--------2------------0-----2--------|
E|------2-----------0--------------2------------0--------|


CHORUS
e|-----------------x-x-x-------------------x-x-x-----|
B|------------x-x--x-x-x--------------x-x--x-x-x-----|
G|-4-4--------2-2--1-1-1---4-4--------2-2--1-1-1-----|
D|-4-4--4-4---2-2--2-2-2---4-4--4-4---2-2--2-2-2-----|
A|-2-2--4-4---0-0--2-2-2---2-2--4-4---0-0--2-2-2-----|
E|------2-2--------0-0-0--------2-2--------0-0-0-----|

e|-------------------x-x-----|
B|-------------------x-x-----|
G|-4-4---------------1-1-----|
D|-4-4--4-4----------2-2-----|
A|-2-2--4-4---4/2/4--2-2-----|
E|------2-2----------0-0-----|

INTRO

VERSE

BRIDGE

CHORUS


LOOK INTO MY EYEBALLS!
e|-x-x-x-x-----|
B|-x-x-x-x-----|
G|-1-1-1-1-----|
D|-2-2-2-2-----|
A|-2-2-2-2-----|
E|-0-0-0-0-----|


SOLO (Play VERSE Tab)

BRIDGE

CHORUS

End on:

e|-------------------x-----|
B|-------------------x-----|
G|-4-4---------------1-----|
D|-4-4--4-4----------2-----|
A|-2-2--4-4---4/2/4--2-----|
E|------2-2----------0-----|


Listen to the song for timing, etc..
Tap to rate this tab
# A B C D E F G H I J K L M N O P Q R S T U V W X Y Z