Song name
# A B C D E F G H I J K L M N O P Q R S T U V W X Y Z

Darkness - Seemed Like A Good Idea At The Time tab

Artista: The Darkness
Album: One Way Ticket to Hell ...And Back
Titolo: Seemed Like A Good Idea At The Time

INTRO:
e|-----5-----5--------------------------------------3---|
B|---5-----5--------8------3-----3------3-----------2---|
G|-7-----6--------7------6-----6------2-----2-------3---|
D|--------------9------7-----5------4-----5----4p2--0---|
A|------------------------------------------------------|
E|------------------------------------------------------|

RE RE4 RE RE2 SOL (x2)

RE	            SOL		 LA	  	SI-
We may not get back what we had, what I threw away
	SOL		RE	  LA 	      SI-
But you know I would do anything, anything to say
RE			      SOL            LA	  	    SI-
I'd cross a thousand miles of broken glass on my hands and knees
	SOL		RE	  LA 	      SI-
I would crawl if for a moment we could cease hostilities
       SOL		  RE		   LA
But it seemed like such a good idea at the time,
       SOL       RE		   LA
such a very very good idea at the time.

********RIT********
  RE		         SI-
I don't know where I am, I don't know where I went wrong
SOL		 RE          SOL  LA
either way let's start again
  RE			 SI-
I don't know where I am, I don't know where I went wrong
SOL		      RE	  SOL LA
I don't know where to start again
*******************
RE		 SOL     LA	  	   SI-
Now our dream is over, believe me I'm all down
	SOL		RE	     LA      SI-
You always seem to come alive when I am not around
       SOL		  RE		   LA
But it seemed like such a good idea at the time,
       SOL       RE		   LA
such a very very good idea at the time.

***RIT

Solo
( RE MI- SOL MI- )
e|-------------------------------------------------|
B|-------------------------------------------------|
G|-------------------------------------------------|
D|-0h4-2-0---0-2h4-5---0-2-4/5-4--2-4/5-5-5--------|
A|---------4---------------------------------------|
E|-------------------------------------------------|

( SOL LA
e|-------------------------------------------------|
B|-------------------------------------------------|
G|-----------------7----7b9r-6-4h6-7-6h7/9---------|
D|-5/9-7--5h7--7/9----9----------------------------|
A|-------------------------------------------------|
E|-------------------------------------------------|

( RE SOL LA SI- )
e|-----10------------------------------------------|
B|-------10--------------------10--7-7-7-----------|
G|-9b11-----9b-7---7---9-9-7-9---------------------|
D|---------------9---------------------------------|
A|-------------------------------------------------|
E|-------------------------------------------------|

( SOL RE LA )
e|--------7--------------------------------------------------------|
B|-7-10-----10-10--7-7----------------------8p7--------------------|
G|---------------------9-9--7-9-9b11p7----------9p7----------------|
D|-------------------------------------9------------9p7--5p4h5-----|
A|-----------------------------------------------------------------|
E|-----------------------------------------------------------------|

       SOL		  RE		   LA
But it seemed like such a good idea at the time,
       SOL       RE		   LA
such a very very good idea at the time.

***RIT
SOL		      RE
I don't know where to start again
Tap to rate this tab
# A B C D E F G H I J K L M N O P Q R S T U V W X Y Z